Pe ape - Iris






1) Notele care sunt insotite de literele "PM" se 
executa folosind tehnica ;
2) /=slide spre o nota cu tonalitate inalta;
3) =slide spre o nota cu tonalitate grava;
4) j=notele insotite de litera , se executa
lovind CU PANA corzile chitarei de jos in sus.

INTRO SI REFREN:

e------------ ------------ -------------- -------------
B------------ ------------ -------------- -------------
G------------ ------------ -------------- -------------
D--5j--5--2-- --5j--7--2-- --5j--7--2---- --5j--7--7---
A--5j--7--0-- --5j--5--0-- --5j--5--0---- --5j--5--5---
E------------ ------------ -------------- -------------

PARTEA DE CHITARA PENTRU STROFE:

e--------------------------------------------
B--------------------------------------------
G--------------------------------------------
D--5j--7-------------------------------------
A--5j--5--7--7PM--7PM--7PM--7PM---7--5-/-7--
E---------5--5PM--5PM--5PM--5PM---5--3-/-5--

BRIDGE

e------------- --------------------
B------------- --------------------
G------------- --------------------
D----7--7--7-- --7--7--7-----------
A----7--7--7-- --5--5--5-----------
E----5--5--5-- --------------------

REFREN

ARMONIA PENTRU SOLO, E LA FEL CU ARMONIA
PENTRU STROFE

FINAL
e----------------------- --------------------
B----------------------- --------------------
G----------------------- --------------------
D----------------------- ---5j--7--2---------
A------------3---------- ---5j--5--0---------
E--0--3--5------5--3--0- --------------------






Like us on Facebook