Uita tot ce-a fost - Iris






Se repeta chestia asta de mai multe ori
   Am            G      Am
e|-0-------------(3)----0-0-0---
B|-1-------------(3)----1-1-1---
G|-2-------------(0)----2-2-2---
D|-2-2-2-2h3-2-0-(0)----2-2-2---
A|-0--------------------0-0-0---
E|------------------------------
* Pe G, sunt mai multe batai, nu le-am scris pe toate

 Am             G         D
Timpul trece iarasi fara rost
 Am            C           D
Amintiri si ganduri, toate-au fost

BRIDGE:
 C        F        C    
Si daca toata lumea ma indeamna
C          F           Am
Sa-ti pun frumosul chip in rama
    F           G  (vezi NOTA la sfarsit))
Eu doar pe tine te aleg

Drumurile noastre se ascund
Anotimpurile toate sunt in gand

Bridge

REFREN: (se canta intro-ul)
  Am        G
Te-am iubit si m-astepti acum,
    C(nu sigur) D
Dar dragostea mea
  Am            G
S-a sfarsit si alergi acum
      C       D       F             G
Pe-o zare de nea, ce se topeste usor

Solo (la clarinet)

Bridge

REFREN 2: (se canta intro-u)
Te-am iubit, da da da
Te-am iubit,
Te-am iubiiiit, da
Te-am iubit
O, te-am iubit, da da da

(fade out... a-ti prins ideea :) )

PENTRU G-UL ALA DE SFARSIT DE STROFA

e|---3--3--3--3-------------------------
B|---3--1--0--1-------------------------
G|---0--0--0--0-------------------------
D|---0--0--0--0-------------------------
A|--------------------------------------
E|--------------------------------------


Un cer pentru doi






Like us on Facebook