Ultimul mic dejun al lui Bon - Iris






Intro
 
----------------------------------------------------------------0-
-----1--------1--------1--------1--------1--------1--------1----1-
---2---2----2---2----2---2----2---2----2---2----2---2----2---2--2-
----------------------------0-----------------------------------3-
-0--------2--------3-----------------0--------2--------3----------
------------------------------------------------------------------
Strofa
------------------------------------------------------------------
-----1--------1--------1--------1--------1--------1--------1------
---2---2----2---2----2---2----2---2----2---2----2---2----2---2----
----------------------------0-------------------------------------
-0--------2--------3-----------------0--------2--------3----------
------------------------------------------------------------------
Am deschis ochii in graba...
 
----------|-----0---0-----------------------0---3-----------------
------1---|-------1---3-1-3-------1-----------1---3-1-3------1----
----2---2-|---2-------------3-3-3---3-2---2-------------3-3-3-3-2-
--0-------|-------------------------------------------------------
----------|-0---------------------------0-------------------------
----------|-------------------------------------------------------
                Nu e ceas...
 
I.Am deschis ochii in graba
  Toata lumea a stiut
  Au plecat ca sa ma vada
  Toata lumea a crezut
  Nu e ceas nu e zi
  Nu e timpul in noi
  Doar eu stiu de unde vii
  Viata stinsa de nori
 
Intro
 
II.Dimineata asta are
   Ochii stinsi orice-ar fi
   Dansul anilor imi pare
   Fum in barul de zi
   Cat cuprind linistea
   Nefiinta din ea
   Doar eu stiu ca ea ma vrea

             Am        F
Refren:Ea ma minte, ne minte
       C             G
       Viata toata ma vrea
       Ea ma minte, ne minte
       Stau la masa cu ea
       Ea ma minte, ne minte
       Visul meu intrerupt
       Ea ma minte, ne minte
       Ce lumina s-a rupt
       Ea ma minte
       Viata ta te vrea
       Ea ma minte
       Stau la masa cu ea
       Ea ne minte
       mmmm visul meu intrerupt
       Ea te minte
       Ce lumina s-a rupt

Solo
        F                 G
Bridge:Ce-am avut si ce-a ramas
       Ca o furtuna
        F                 G
       Timpul face-un ultim pas

Refren:Ea ma minte, ne minte
       Viata toata ma vrea
       Ea ma minte, ne minte
       Stau la masa cu ea
       Ea ma minte, ne minte
       Visul meu intrerupt
       Ea ma minte, ne minte
       Ma vreaaaaaa
       Ea ma minte
       Ea ma minte
       Ea te minte (viata ma vrea)
       Ea te minte
Yeah

Intro






Like us on Facebook