Un cer pentru doi - Iris






INTRO:
     Am                         Am     
e||------------0--------------------0----|
B||-------1---------1---------------1----|
G||----2-----2---2-----2---------2--2----|
D||--------------------------------------|
A||-0-------------------------0----------|
E||--------------------------------------|

     Am                        C     
|------------0--------------------0----|
|-------1---------1---------------1----|
|----2-----2---2-----2---------0--0----|
|--------------------------------------|
|-0-------------------------3----------|
|--------------------------------------|

   C       Em       Am       Em
|--------------------------------------|
|-----1-------0--------1--------0------|
|---0---0---0---0----2---2----0---0----|
|--------------------------------------|
|-3--------2-------0--------2----------|
|--------------------------------------|

   Am                       Am     
|------------0--------------------0----|
|-------1---------1---------------1----|
|----2-----2---2-----2---------2--2----|
|--------------------------------------|
|-0-------------------------0----------|
|--------------------------------------|

   Am                         Am     
|------------0--------------------0----|
|-------1---------1---------------1----|
|----2-----2---2-----2------------2----|
|--------------------------------------|
|-0-------------------------0--0-------|
|--------------------------------------|



STROFA 1:
     Am                         Am     
|------------0--------------------0----|
|-------1---------1---------------1----|
|----2-----2---2-----2---------2--2----|
|--------------------------------------|
|-0-------------------------0----------|
|--------------------------------------|
 De-as afla ca te-am pierdut

     Am                        C     
|------------0--------------------0----|
|-------1---------1---------------1----|
|----2-----2---2-----2---------0--0----|
|--------------------------------------|
|-0-------------------------3----------|
|--------------------------------------|
   Marea am sa o ascult

    C                Am       Em         Am             Am     
|----------0------------------------------------0------------0----|
|--------1---1----------1--------0----------1-------1--------1----|
|------2-------2------2---2----0---0------2---2---2---2---2--2----|
|----0-----------0------------------------------------------------|
|--3----------------0--------2----------0----------------0--------|
|-----------------------------------------------------------------|
 Sa-mi spuna de-am gresit candva
     Am                         Am     
|------------0--------------------0----|
|-------1---------1---------------1----|
|----2-----2---2-----2---------2--2----|
|--------------------------------------|
|-0-------------------------0----------|
|--------------------------------------|




STROFA 2:
     Am                         Am     
|------------0--------------------0----|
|-------1---------1---------------1----|
|----2-----2---2-----2---------2--2----|
|--------------------------------------|
|-0-------------------------0----------|
|--------------------------------------|
  De-as afla ca ai plecat
     Am                        C     
|------------0--------------------0----|
|-------1---------1---------------1----|
|----2-----2---2-----2---------0--0----|
|--------------------------------------|
|-0-------------------------3----------|
|--------------------------------------|
  Valuri mari as fi-nvocat

   C       Em       Am       Em
|--------------------------------------|
|-----1-------0--------1--------0------|
|---0---0---0---0----2---2----0---0----|
|--------------------------------------|
|-3--------2-------0--------2----------|
|--------------------------------------|
  Sa-mi aduca amintirea ta

   Am       Em       C     
|--------------------------------------|
|-----1-------0--------1-1-------------|
|---2---2---0---0----0-----------------|
|--------------------------------------|
|-0--------2-------3--------3--5-------|
|--------------------------------------|




 Dm                          E            
|------------1------------------------------|
|--------3-----3---3----------------0-------|
|------2---2-----2-------------0--------0---|
|-0--------------------------2---2----------|
|-------------------------------------------|
|-------------------------0-----------------|
Oooore-n sir sa te privesc
  Am
|-------------------------------------------|
|--------1--1p0------1p0------1p0-----------|
|------2--------2--------2--------2---------|
|----2------------2--------2--------2-------|
|--0----------------------------------------|
|-------------------------------------------|
                          (incepe bataia)
Dm                           E              Am    G
|-----------1----------------------------------------------------|
|------3-----3----3-------------0--------------------------------|
|----2---2------2-----------1-----1---1--------------------------|
|-0-----------------------2---2-----2--------2-------------------|
|---------------------------------------------0------------------|
|----------------------0-----------------------------------------|
Cand adormi eu ma trezesc


REFREN:
   C               G
Si nu vreau ochii sa-i inchid
   Am           Em
Iar departarea s-o cuprind
        F             Dm         G
Nici in somnul meu nu vreau ca sa te uit
   C          G
Si nu vreau ochii sa-i inchid
   Am              Em
Cu lacrimi obrazul tau ating
      F                       C
Sa nu uit o clipa din iubirea ta


BRIDGE:
Am                  C
     Si de-ar fi ca sa te pierd
F          G
     Eu atunci am sa te chem
Am          C
     Un cer senin as vrea sa fim
F          G
     Fara nori vom fi mereu


Refren

Solo

Bridge

Refren

   Am                       Am     
|------------0--------------------0----|
|-------1---------1---------------1----|
|----2-----2---2-----2---------2--2----|
|--------------------------------------|
|-0-------------------------0----------|
|--------------------------------------|


     Am                         Am     
|------------0--------------------0----|
|-------1---------1---------------1----|
|----2-----2---2-----2---------2--2----|
|--------------------------------------|
|-0-------------------------0----------|
|--------------------------------------|
De-as afla ca te-am pierdut

     Am                        C     
|------------0--------------------0----|
|-------1---------1---------------1----|
|----2-----2---2-----2---------0--0----|
|--------------------------------------|
|-0-------------------------3----------|
|--------------------------------------|
Marea am sa o ascult

    C                Am           Em                Am
|----------0----------------------------------------0-------|
|--------1---1--------------1-------------0---------1-------|
|------2-------2--------2------2------0-------0-----2-------|
|----0-----------0----------------------------------2-------|
|--3----------------0-------------2-----------------0-------|
|---------------------------------------------------0-------|
Sa-mi aduca amintirea ta






Like us on Facebook