Zi de zi - Iris






INTRO:

e---------------------------------------------|
B---------------------------------------------|
G--2----2s4-4h6-2-2s4-4h6-------4-4h6---------|
D-------------------------6-4-4-------6-4-4---|
A---------------------------------------------|
E---------------------------------------------|

e------------------------------------------------|
B--2--2-2--2---------------2--2-2-2--------------|
G--2--2-2----4-2--4h6--2---2--2-2---4-2--4h6--2--|
D------------------------------------------------|
A------------------------------------------------|
E------------------------------------------------|


VERSURI:
    A                         
e-------------------------|  
B--------5v------5v-3p2---|                       
G---2--------2------------|
D---2--------2------------|
A-----0-0------0-0--------|  
E-------------------------|  

    F#m                         
e-------------------------|  
B--------5v-------5v-3p2--|                       
G-------------------------|
D---4--------4------------|
A---4--------4------------|  
E-----2-2------2-2--------|  


(utilizati formulele de mai sus)

A
  As putea avea orice doresc, da!
A
  As putea chiar aur sa gasesc
       F#m
  In nisipul vietii des...
            F#m
  Oricat de greu ar fi d-ales!

As putea Pamantul sa-l castig
In palate mari de gheata strig
As putea sa am orice
As putea avea ce vreau


REFREN:
 
E5                   F#5     D5
  Tot la tine gandul meu se-ntoarce
E5                     F#5   D5
  Viata mea spre soare se desface

A5                     E5    D5       A5 
  Tot ce vreau e sa te pot visa zi de zi
  Tot ce vreau e sa te pot chema zi de zi
  Tot ce vreau e sa te pot iubi zi de zi
  Zi de Zi
  Zi de Zi ...

Eu as putea sa fiu nemuritor
Si doar de stele sa ma inconjor
Si ce sa fac cu diamante reci?
Sa simt raceala lor pe veci...

Tot la tine gandul meu se-ntoarce
Viata mea spre soare se desface...

2X Tot ce vreau e sa te pot visa zi de zi
Tot ce vreau e sa te pot chema zi de zi
Tot ce vreau e sa te pot iubi zi de zi
Tot ce vreau e sa te pot iubi....

Zi de zi.....

2X Refren
Sa te pot iub....






Like us on Facebook