Fear Of The Dark (album) Tab - Iron Maiden






IRON MAIDEN - FEAR OF THE DARK ALBUM

1. Be Quick Or Be Dead
2. From Here To Eternity
3. Afraid to Shoot Strangers
4. Fear is The Key
5. Childhood's End
6. Wasting Love
7. The Fugitive
8. Chains Of Misery
9. The Apparition
10. Judas Be My Guide
11. Weekend Warrior
12. Fear Of The Dark

TABLATURE LEGEND
----------------
 h   - hammer-on
 p   - pull-off
 b   - bend
 pb  - pre-bend
 r   - bend release (if no number after the r, then release immediately)
 /  - slide into or out of (from/to "nowhere")
 s   - legato slide
 S   - shift slide
  - natural harmonic
[n]  - artificial harmonic
n(n) - tapped harmonic
 ~   - vibrato
 tr  - trill
 T   - tap
 TP  - trem. picking
 PM  - palm muting
n/  - tremolo bar dip; n = amount to dip
 n  - tremolo bar down
 n/  - tremolo bar up
/n  - tremolo bar inverted dip
 =   - hold bend; also acts as connecting device for hammers/pulls
   - volume swell (louder/softer)
 x   - on rhythm slash represents muted slash
 o   - on rhythm slash represents single note slash
 |  - bar
||  - double bar
||o - repeat start
o|| - repeat end
*|  - double bar (ending)
 :  - bar (freetime)
 $  - Segno

1. BE QUICK OR BE DEAD
Tuning: Standard EADGBE

e|------------------------------------------------------|
B|------------------------------------------------------|
G|------------------------------------------------------|  Play
D|----5-5-0-0-1-1-3-3-1-0--------5-5-0-0-1-1-3-3-1------|    4
A|--------------------------------------------------3---|  Times
E|-3--------------------------3-------------------------|

e|---------------------------------------------------|
B|---------------------------------------------------|
G|---------------------------------------------------|
D|-------------------------------------------7--8----|
A|-5--5-5--5-5-5-5--5-5--5-5-5-5--5-5--5-5-5-5--6----|
E|-3--3-3--3-3-3-3--3-3--3-3-3-3--3-3--3-3-3---------|
   .  . .  . . . .  . .  . . . .  . .  . . .
   Covered in    sinners   and dripping  with guilt

e|---------------------------------------------------|
B|---------------------------------------------------|
G|---------------------------------------------------|
D|-----------------------------3----5--------8----8-|
A|-5--5-5--5-5-5-5--5-5--5-5-5-1----3--------6----5-|
E|-3--3-3--3-3-3-3--3-3--3-3-3-----------------------|
   .  . .  . . . .  . .  . . .
   Making  your  money    from slime and from filth

e|---------------------------------------------------|
B|---------------------------------------------------|
G|---------------------------------------------------|
D|-------------------------------------------7--8----|
A|-5--5-5--5-5-5-5--5-5--5-5-5-5--5-5--5-5-5-5--6----|
E|-3--3-3--3-3-3-3--3-3--3-3-3-3--3-3--3-3-3---------|
   .  . .  . . . .  . .  . . . .  . .  . . .
 Parading your bellies    in i -     vory towers

e|---------------------------------------------------|
B|---------------------------------------------------|
G|---------------------------------------------------|
D|-----------------------------3----5--------8----8-|
A|-5--5-5--5-5-5-5--5-5--5-5-5-1----3--------6----5-|
E|-3--3-3--3-3-3-3--3-3--3-3-3-----------------------|
   .  . .  . . . .  . .  . . .
  Investing our  lives in your schemes and your powers

e|---------------------------------------------------|
B|---------------------------------------------------|
G|---------------------------------------------------|
D|---------------------------------------------------|
A|-3--3--3-3-3--3--3--3-3-3-1--1--1-1-1--------------|
E|---------------------------------------1--1--1-1-1-|
   .  .  . . .  .  .  . . . .  .  . . .  .  .  . . .
   You've got to watch them be quick or be dead

e|---------------------------------------------------|
B|---------------------------------------------------|
G|---------------------------------------------------|
D|---------------------------------------8---7---8---|
A|-3--3--3-3-3--3--3--3-3-3-1--1--1-1-1--6---5---6---|
E|---------------------------------------------------|
   .  .  . . .  .  .  . . . .  .  . . .
   Snake eyes in heaven the thief in your head

e|---------------------------------------------------|
B|---------------------------------------------------|
G|---------------------------------------------------|
D|---------------------------------------------------|
A|-3--3--3-3-3--3--3--3-3-3-1--1--1-1-1--------------|
E|---------------------------------------1--1--1-1-1-|
   .  .  . . .  .  .  . . . .  .  . . .  .  .  . . .
   You've got to watch them be quick or be dead

e|---------------------------------------------------|
B|---------------------------------------------------|
G|---------------------------------------------------|
D|---------------------------------------8---7---8---|
A|-3--3--3-3-3--3--3--3-3-3-1--1--1-1-1--6---5---6---|
E|---------------------------------------------------|
   .  .  . . .  .  .  . . . .  .  . . .
   Snake eyes in heaven the thief in your head...

e|---------------------------------------------|
B|---------------------------------------------|
G|---------------------------------------------|
D|----7--5--0----5--3-------3--1-------1--1p0--|
A|---------------------5----------3----------1-|
E|-3----------3----------3----------3----------|
                                             Be

e|---------------------------------------------|
B|---------------------------------------------|
G|---------------------------------------------|
D|----7--5--0----5--3-------3--1-------1--1p0--|
A|---------------------5----------3----------1-|
E|-3----------3----------3----------3----------|
   Quick          Or be  dead                Be

e|---------------------------------------------|
B|---------------------------------------------|
G|---------------------------------------------|
D|----7--5--0----5--3-------3--1-------1--1p0--|
A|---------------------5----------3----------1-|
E|-3----------3----------3----------3----------|
   Quick      (quick)    (quick) (quick) or be

e|---------------------------------------------|
B|---------------------------------------------|
G|---------------------------------------------|
D|----7--5--0----5--3-------3--1-------1--1p0--|
A|---------------------5----------3----------1-|
E|-3----------3----------3----------3----------|
   Dead       (dead)     (dead)     (dead)

e|----------------------------------|
B|----------------------------------|
G|----------------------------------|
D|----------------------------------|
A|-3-----------------5--------------|
E|-1-----------------3--------------|
   See what's ruling all our lives

e|-----------------------------------|
B|-----------------------------------|
G|-----------------------------------|
D|-----------------------------------|
A|-3------------------5--------------|
E|-1------------------3--------------|
   See who's pullling strings

e|----------------------------------|
B|----------------------------------|
G|----------------------------------|
D|----------------------------------|
A|-3-----------------5--------------|
E|-1-----------------3--------------|
   See what's ruling all our lives

e|----------------------------------|
B|----------------------------------|
G|----------------------------------|
D|-3-----------------5--------------|
A|-3-strum-----------5-strum--------|
E|-1-----------------3--------------|
   See who pulls the strings

e|------------------------------------------|
B|------------------------------------------|
G|------------------------------------------|
D|---3-------------5------------3-----------|
A|---1---3---------3----5-------1---3---5---|
E|-------1--------------3-----------1---3---|
I'll bet you won't fall on your face

e|----------------------------------------------------------|
B|----------------------------------------------------------|
G|----------------------------------------------------------|
D|---3----------5-----------3---5---7---------8------10-----|
A|---1---3------3----5------1---3---5---------6------8------|
E|-------1-----------3--------------------------------------|
Your belly will hold you in place...

e|------------------------------------------------------|
B|------------------------------------------------------|
G|------------------------------------------------------|  Play
D|----5-5-0-0-1-1-3-3-1-0--------5-5-0-0-1-1-3-3-1------|    4
A|--------------------------------------------------3---|  Times
E|-3--------------------------3-------------------------|

Play 3rd and 4th time
e|------------------------------------------------------|
B|------------------------------------------------------|
G|----8--------------------------8----------------------|
D|--------7---8---10--8-7------------7---8---10--8------|
A|--------------------------------------------------10--|
E|------------------------------------------------------|

Go back and do the same thing for the next verse and chorus.
Then it goes to the guitar solo. Then it goes finally into
the last chorus. End the song with this chord:
e|--------|
B|--------|
G|--------|
D|--------|
A|-5------|
E|-3------|

SOLO

------------------------------------------------------------------------------|
------------------------------------------------------------------------------|
-10^12vvvv--15-17-15----15----------------------------------------------------|
---------------------17----17-15-13h15p13-------13vvvv------------------------|
------------------------------------------15-13-------------------------------|
------------------------------------------------------------------------------|


------------------------------------------------------------------------------|
------------------------------------------------------------------------------|
------------------------------------------------------------------------------|
-12h13p12-12h13p12-12h13p12-12h13p12-10---------------------------------------|
------------------------------------------------------------------------------|
------------------------------------------------------------------------------|


------------------------------------------------------------------------------|
------------------------------------------------------------------------------|
-------17--------17-----------------------------------------------------------|
-15h17-17--15h17----15h17p15-15h17p15-15h17p15-15h17p15-----------------------|
------------------------------------------------------------------------------|
------------------------------------------------------------------------------|


-13vv-15-13-11-13-11----------------------------------------------------------|
--------------------13-11h13-11-----------------------------------------------|
--------------------------------12-10h12-10-----------------------------------|
--------------------------------------------13-10-13-10-8---8-----------------|
----------------------------------------------------------10--10-8-10-8-------|
------------------------------------------------------------------------8/----|


------------------------------------------------------------------------------|
------------------------------------------------------------------------------|
-7/10--12-10-9--10-9----------------------------------------------------------|
--------------12-----12-10-12-11h12p11h12p11----------------------------------|
---------------------------------------------11h12p11h12p11-------------------|
------------------------------------------------------------9h10p9h10p9-------|


------------------------------------------------------------------------------|
------------------------------------------------------------------------------|
------------------------------------------------------------------------------|
-------10-10-------10-10-10h12p10*-------------------------------------------|
-10h12-------10h12------------------------------------------------------------|
------------------------------------------------------------------------------|
                                   * slide down while hammering and pulling

------------------------------------------------------------------------------|
------------------------------------------------------------------------------|
------------------17vvv-15p14-12vvv-14p12-10h12p10-10h12p10-7h10p7-7h10p7-----|
------15-12-15p12-------------------------------------------------------------|
-13-12------------------------------------------------------------------------|
------------------------------------------------------------------------------|


------------------------------------------------------------------------------|
------------------------------------------------------------------------------|
---------------------------------12h15p12-12-17p15p12-17p15p12-17p15p12-17vv--|
-10h12p10-10h12p10-7h10p7-7h10p7----------------------------------------------|
------------------------------------------------------------------------------|
------------------------------------------------------------------------------|

=======================TABLATURE LEGEND=====================================
|  slide down
| h hammeron
| p pulloff
| . palm mute
============================================================================


 2. FROM HERE TO ETERNITY

rythm guitar:
   D5                   C5
|------------------------------------------------------|
|------------------------------------------------------|
|--7--7--7--7--7--7--7--5-----5--5--5--5--5--5--5--5---|
|--7--7--7--7--7--7--7--5-----5--5--5--5--5--5--5--5---|
|------------------------------------------------------|
|------------------------------------------------------|

                                         repeat 3x
                      (solo guitar begins after 2x)
   B5          C5       D5               C5     D5
|------------------------------------------------------|
|------------------------------------------------------|
|--4--4--4--4--5--4--5--7-----7--7--7--7--5--5--7------|
|--4--4--4--4--5--4--5--7-----7--7--7--7--5--5--7------|
|------------------------------------------------------|
|------------------------------------------------------|

 last time:
   D5                   C5
|------------------------------------------------------|
|------------------------------------------------------|
|--7--7--7--7--7--7--7--5-----5--5--5--5--5--5--5--5---|
|--7--7--7--7--7--7--7--5-----5--5--5--5--5--5--5--5---|
|------------------------------------------------------|
|------------------------------------------------------|

   Bb5         C5       D5                C5    E5
|------------------------------------------------------|
|------------------------------------------------------|
|--3--3--3--3--5--3--5--7-----7--7--7--7--5------------|
|--3--3--3--3--5--3--5--7-----7--7--7--7--5-----9------|
|-----------------------------------------------7------|
|------------------------------------------------------|


solo guitar:
   D5                   C5
|------------------------------------------------------|
|-----------------------12b(13)r12---------------------|
|--------10----10----10-12b(13)r12--10-----------------|
|--10/12----12----12-------------------12--------------|
|------------------------------------------------------|
|------------------------------------------------------|

   B5          C5       D5    D5         C5     D5
|------------------------------------------------------|
|-----------------------12b(13)r12-----13b(15)---------|
|--------10----10----10-12b(13)r12--10-----------------|
|--10/12----12----12-----------------------------------|
|------------------------------------------------------|
|------------------------------------------------------|

   D5                   C5
|------------------------------------------------------|
|-----------------------12b(13)r12---------------------|
|--------10----10----10-12b(13)r12--10-----------------|
|--10/12----12----12-------------------12--------------|
|------------------------------------------------------|
|------------------------------------------------------|

   Bb5         C5       D5                C5    E5
|-------------------------------------------21b(22)----|
|--------------------------18-20b(22)r20p18------------|
|--------------------17-19-----------------------------|
|--------15-17-17/19-----------------------------------|
|--15/17-----------------------------------------------|
|------------------------------------------------------|


1st, 2nd verse:

     She fell in love...
   E5                   D5                         C5
|------------------------------------------------------|
|------------------------------------------------------|
|------------------------------------------------------|
|--9-----9-----9--9--9--7-----7--7--------7--7--7--5---|
|--7-----7-----7--7--7--5-----5--5--------5--5--5--3---|
|------------------------------------------------------|

     she leaned over...
   C5                   D5                   C5    E5
|------------------------------------------------------|
|------------------------------------------------------|
|------------------------------------------------------|
|--5-----5-----5--5--5--7-----7--7--------7--5--5--9---|
|--3-----3-----3--3--3--5-----5--5--------5--3--3--7---|
|------------------------------------------------------|

     she'd never seen...
   E5                   D5                         C5
|------------------------------------------------------|
|------------------------------------------------------|
|------------------------------------------------------|
|--9-----9-----9--9--9--7-----7--7--------7--7--7--5---|
|--7-----7-----7--7--7--5-----5--5--------5--5--5--3---|
|------------------------------------------------------|

                                           repeat 2x
     she left there...                             Hell
   C5                   D5 (E)
|------------------------------------------------------|
|------------------------------------------------------|
|------------------------------------------------------|
|--5-----5-----5--5--5-----9-----9-----------------9---|
|--3-----3-----3--3--3-----7-----7-----------------7---|
|-----------------------------------------5--3--0------|


Chorus:
            ain't a  bad   place,                  hell
         (E)
|------------------------------------------------------|
|--------0-----------0-----0--0--------------------0---|
|--------1-----------2-----1--1--------------------2---|
|--------2-----------2-----2--2--------------------2---|
|--------2--------------------2------------------------|
|--------0--------------------0------------------------|

                          after 1st verse: repeat 2x
                          after 2nd verse: repeat 4x

         is from here to eternity.

|------------------------------------------------------|
|------------------------------------------------------|
|--------1--1--2-----1--1--2-----1--4-----4-----4------|
|--------2--2--2-----2--2--2-----2--2-----2-----2------|
|--------------------------------------------------2---|
|--------------------------------------------------0---|

Bridge:

   E5                   D5
|------------------------------------------------------|
|------------------------------------------------------|
|--9--9--9--9--9--9--9--7-----7--7--7--7--7--7--7--7---|
|--9--9--9--9--9--9--9--7-----7--7--7--7--7--7--7--7---|
|------------------------------------------------------|
|------------------------------------------------------|

   C#5         D5             E5          D5    E5
|------------------------------------------------------|
|------------------------------------------------------|
|--6--6--6--6--7--6--7--9-----9--9--9--9--7--7--9------|
|--6--6--6--6--7--6--7--9-----9--9--9--9--7--7--9------|
|------------------------------------------------------|
|------------------------------------------------------|

   E5                   D5
|------------------------------------------------------|
|------------------------------------------------------|
|--9--9--9--9--9--9--9--7-----7--7--7--7--7--7--7--7---|
|--9--9--9--9--9--9--9--7-----7--7--7--7--7--7--7--7---|
|------------------------------------------------------|
|------------------------------------------------------|

   C5          D5             E5          D5    E5
|------------------------------------------------------|
|------------------------------------------------------|
|--5--5--5--5--7--5--7--9-----9--9--9--9--7--7--9------|
|--5--5--5--5--7--5--7--9-----9--9--9--9--7--7--9------|
|------------------------------------------------------|
|------------------------------------------------------|

   E5                   D5
|------------------------------------------------------|
|------------------------------------------------------|
|--9--9--9--9--9--9--9--7-----7--7--7--7--7--7--7--7---|
|--9--9--9--9--9--9--9--7-----7--7--7--7--7--7--7--7---|
|------------------------------------------------------|
|------------------------------------------------------|

   C#5         D5             E5          D5    E5
|------------------------------------------------------|
|------------------------------------------------------|
|--6--6--6--6--7--6--7--9-----9--9--9--9--7--7--9------|
|--6--6--6--6--7--6--7--9-----9--9--9--9--7--7--9------|
|------------------------------------------------------|
|------------------------------------------------------|

(solo begins)
   E5                   D5
|------------------------------------------------------|
|------------------------------------------------------|
|--9--9--9--9--9--9--9--7-----7--7--7--7--7--7--7--7---|
|--9--9--9--9--9--9--9--7-----7--7--7--7--7--7--7--7---|
|------------------------------------------------------|
|------------------------------------------------------|

   C5          D5             E5          D5    E5
|------------------------------------------------------|
|------------------------------------------------------|
|--5--5--5--5--7--5--7--9-----9--9--9--9--7--7--9------|
|--5--5--5--5--7--5--7--9-----9--9--9--9--7--7--9------|
|------------------------------------------------------|
|------------------------------------------------------|

solo guitar:

   E5                   D5
|------------------------------------------------------|
|-----------------------14b(15)r14---------------------|
|--------12----12----12-14b(15)r14--12-----------------|
|--12/14----14----14-------------------14--------------|
|------------------------------------------------------|
|------------------------------------------------------|

   C5          D5       E5                D5    E5
|----------------------------------------22b(24)-------|
|-----------------15-17-20-22b(24)r22-20---------------|
|--------12-14/16--------------------------------------|
|--12/14-----------------------------------------------|
|------------------------------------------------------|
|------------------------------------------------------|

Rythm for solo 1:
 /  /  /  /  /
E5 D5 C5 D5 E5 (repeat 2x)

Rythm for solo 2:
 /  /  /   /  /
D5 C5 Bb5 C5 D5 (repeat 2x)

Repeat chorus 2x after solos and then:

  Hell       ain't a bad   place,
         (E)
|------------------------------------------------------|
|--------0-----------0---------------------------------|
|--------1-----------2-----4---------------------------|
|--------2-----------2-----2---------------------------|
|-2------2---------------------------------------------|
|-0------0-----------------3---------------------------|

  hell   is   from  here  to    e-    ter-  ni-   ty.4
   A5    G#5   E5    A5    G#5   E5    A5    G#5  (E)
|------------------------------------------------------|
|------------------------------------------------------|
|------------------------------------------------------|
|------------------------------------------------------|
|--7-----6-----2-----7-----6-----2-----7-----6-----2---|
|--5-----4-----0-----5-----4-----0-----5-----4-----0---|

Strum last note (E5) a lot of times(with solo guitar).

3. AFRAID TO SHOOT STRANGERS

B:bend( hold )  ~:vibratto          |:end of measure         Guitar 1:Dave Murray
H:hammer-on     /:slide             B...R:bend and release     Guitar 2:Janick Gers
P:pull-off    N.H:natural harmonics

Riff 1: On the original track this Riff is played without distortion, but LIVE with distortion.


Guitar 1: Intro:
    E5                                   G5                                Db5           B5
E---------------------------------------------------------------------------------------------|
B-------7--7/9--7^9^7-------------------10/12--10--8^10--7------------------------------------|
G--7/9-----------H--P---9--8--6^8^6-----------------H-------9--7--6--------6--6--6--6^4-------|
D-----------------------------H--P---9-------------------------------9--7------------P---6/9--|
A---------------------------------------------------------------------------------------------|
E---------------------------------------------------------------------------------------------|


Guitar 2:Play each chord 4 times.
   E5                  G5              Db5               B5
E---------------|----------------|----------------|-----------------|
B---------------|----------------|----------------|-----------------|
G---------------|----------------|------6---6-----|------4---4------|
D------2---2----|-------5---5----|----6---6---6---|----4---4---4----|
A----2---2---2--|----5---5---5---|--4-------------|--2--------------|
E--0------------|--3-------------|----------------|-----------------|


Guitar 1:
   E5                                 G5                                Db5
E------------------------------------------|--------------------------------|
B-------7--7/9--7^9^7---------------10/12--|--10--8^10--7-------------------|
G--7/9----------H--P--9--8--6^8^6----------|-------H-------9--7--6-------6--|
D---------------------------H--P--9--------|-----------------------9--7-----|
A------------------------------------------|--------------------------------|
E------------------------------------------|--------------------------------|

              B5        G#5
----------------------------|
----------------------------|
--6--6--6^4-----------------|
---------P----6/9--6--9--6--|
----------------------------|
----------------------------|

Guitar 2:Play each chord 4 times except G#5 only 2 times.
     E5                 G5              Db5             B5              G#5
E----------------|---------------|---------------|---------------|--------------|
B----------------|---------------|---------------|---------------|--------------|
G----------------|---------------|------6---6----|-------4---4---|--------------|
D------2---2-----|-------5---5---|----6---6---6--|----4---4---4--|------6---6---|
A----2---2---2---|----5---5---5--|--4------------|--2------------|----6---6---6-|
E--0-------------|--3------------|---------------|---------------|--4-----------|


Riff 2:Play 2 times.


Guitar 1 & Guitar 2:Play each chord 4 times.
     E5                  Db5             D5                  B5
E---------------|----------------|-----------------|-----------------|
B---------------|----------------|-----------------|-----------------|
G---------------|-------6---6----|-------7---7-----|--------4---4----|
D------2---2----|-----6---6---6--|-----7---7---7---|------4---4---4--|
A----2---2---2--|--4-------------|--5--------------|---2-------------|
E--0------------|----------------|-----------------|-----------------|


Verse 1:

 E5                      Db5
Lying, awake at night l wipe the sweat from my brow
                 D5                      B5
But it's not the fear, cos l'd rather go now.
 E5                        Db5.
Trying, to visualize the horrors that will lay ahead
                D5               B5
The desert sand mound, a burial ground.


Riff 3:


Guitar 1 & Guitar 2:
     C5            Db5            Bb5         C5               C5          C5           C5
E-------------------------------------------------------------------------------------------------|
B-------------------------------------------------------------------------------------------------|
G------5---5--------6---6--------3---3----------5---5--------5---5---------5---5---------5---5----|
D----5---5---5----6---6---6----3---3---3-----5---5---5-----5---5---5-----5---5---5-----5---5---5--|
A--3------------4------------1-------------3-------------3-------------3-------------3------------|
E-------------------------------------------------------------------------------------------------|


Chorus:
        C5           Db5         Bb5         C5
When it comes to the time are we partners in crime
        C5           Db5         Bb5         C5
When it comes to the time we'll be ready to die.


Now play Riff 2 again.


Verse 2:


 E5                     Db5
God, let us go now and finish what's to be done
             D5                B5
Thy kingdom come, thy shall be done, on earth
 E5                     Db5
Trying, to justify to ourselves the reasons to go
                         D5               B5
Should we live and let live? Forget or forgive?


Riff 4:Play 4 times.


Guitar 1 & Guitar 2:
    C5              C5            Db5            Bb5           C5
E-----------------------------------------------------------------------------|
B-----------------------------------------------------------------------------|
G------5---5---------5---5----------6---6---------3---3---------5---5---------|
D----5---5---5-----5---5---5------6---6---6-----3---3---3-----5---5---5----5--|
A--3-------------3-------------4--------------1-------------3------------3----|
E-----------------------------------------------------------------------------|

C5          C5           C5
---------------------------------|
---------------------------------|
5---5-------5---5--------5---5---|
-5---5----5---5---5----5---5---5-|
--------3------------3-----------|
---------------------------------|

Chorus:


    C5          Db5     Bb5        C5
But how can we let them go on this way?
     C5       Db5      Bb5          C5
The reign of terror corruption must end.
       C5          Db5         Bb5      C5
And we know, deep down there's no other way
    C5         Db5     Bb5        C5
No trust, no reasoning no more to say.


Riff 5:Play 4 times.    (The chords with the asterisk are played the 2nd and 4th time only)


Guitar 1 & Guitar 2:
E----------------------------------9-----------------------------------------------------------|
B-------9--10--9-----10----10--12----12--10--12----9--10--12-----9--10--12--10--9-----------9--|
G----11-----------11----11----------------------9-------------9-------------------11--9--11----|
D-11-------------------------------------------------------------------------------------------|
A----------------------------------------------------------------------------------------------|
E----------------------------------------------------------------------------------------------|


Riff 6: Play 4 times (The chords with the asterisk are played the 2nd and 4th time only)


Guitar 1 & Guitar 2:                                         (B5)*     (C#5)*
Bass:F#5                   D5            E5                   D5         E5
E-------------------------------------------|--------------------------------------------|
B---------10--10---10--12--10--9--10-----9--|--9--9--9--9-----------------------9--------|
G-----11-----------------------------11-----|--------------9--11--11--11--9--11----11^9--|
D-------------------------------------------|----------------------------------------P---|
A-------------------------------------------|--------------------------------------------|
E-------------------------------------------|--------------------------------------------|


The 3rd and 4th time, Bruce sings: Afraid to shoot strangers.


Now play Riff 5 again 2 times.


Riff 7:


Guitar 1 & Guitar 2:
E-----------------------------------|-------------------------------|
B-----------------------------------|-------------------------------|
G-----------------------------------|-------------------------------|
D---7/9--9--9--9--9--9--9--9--9--9--|--7/9--9--9--9--9--7--7--5--5--|
A---5/7--7--7--7--7--7--7--7--7--7--|--5/7--7--7--7--7--5--5--3--3--|
E-----------------------------------|-------------------------------|

E-----------------------------------|-------------------------------|
B-----------------------------------|-------------------------------|
G-----------------------------------|-------------------------------|
D---5/7--3--3--3--3--3--3--3--3--3--|--5/7--7--7--7--7--------------|
A---3/5--5--5--5--5--5--5--5--5--5--|--3/5--5--5--5--5--7--7--9--9--|
E-----------------------------------|-------------------5--5--7--7--|


E-----------------------------------|--------------------------------|
B-----------------------------------|--------------------------------|
G-----------------------------------|--------------------------------|
D--7/9--9--9--9--9--9--9--9--9--9---|--7/9--9--9--9--9--7--7--5--5---|
A--5/7--7--7--7--7--7--7--7--7--7---|--5/7--7--7--7--7--5--5--3--3---|
E-----------------------------------|--------------------------------|


Guitar 1 now plays Riff 7 ( once ) and Guitar 2 plays the solo (As played on the album).


Guitar 2: Solo


E--15^12------------12--15^12-------------12--15^12--------------12--15^12----|
B----P---15^12^15---------P---15--12--15--------P----15--12--15--------P----15|
G----------P--H---------------------------------------------------------------|
D-----------------------------------------------------------------------------|
A-----------------------------------------------------------------------------|
E-----------------------------------------------------------------------------|


E---------12--15^12-------------12--15^12-------------------------|
B--12--15-------P---15--12--15--------P---15--12--15^12--15^17^15-|
G---------------------------------------------------P------B--R---|
D-----------------------------------------------------------------|
A-----------------------------------------------------------------|
E-----------------------------------------------------------------|

-19-------------------------------------------------------------------|
-----19---------------------------------------------------------------|
---------19-----------------------------------------------------------|
--------------19--12--19--12------------------------------------------|
---------------------------------19--12--19--12-----------------------|
-----------------------------------------------------19--12--12--19/3-|

E-------12-----------------------------------------------------------------------------|
B-15^17----15^14^12------12------------------------------------------------------------|
G---B--------P---P---15-----14^13^12-----12--------------------------------------------|
D-----------------------------P--P----14------14^12-----12-----------------------------|
A-----------------------------------------------P----14-----14^13^12-----12----12------|
E-------------------------------------------------------------P--P----15----15----12/3-|

-----------------|
-----------------|
-14^16--12-[16]--|
---B-------A.H---|
-----------------|
-----------------|
        [Tremolo]
       [ Dive-bomb]


Riff 8:


Guitar 1:
E-----------------------|---------------------------------------------10^12~--|
B--8--10--10^12--10--8--|--8--10--10^12--10--8--7--10^12--10--8--7--8---B-----|
G-----------B-----------|-----------B----------------B------------------------|
D-----------------------|-----------------------------------------------------|
A-----------------------|-----------------------------------------------------|
E-----------------------|-----------------------------------------------------|


Guitar 2:
E-----------------------|-----------------------------------------------------|
B-----------------------|---------------------------------------------10^12~--|
G--9--11---12---11---9--|--9--11----12----11--9------12----11--9----9---B-----|
D-----------------------|------------------------12--------------12-----------|
A-----------------------|-----------------------------------------------------|
E-----------------------|-----------------------------------------------------|


Guitar 1:
E--8--10--10^12--10--8--|--8--10--10^12--10--8--7--10^12--10--8--7--8---15^17--15^17--|
B-----------B-----------|-----------B----------------B--------------------B------B----|
G-----------------------|-------------------------------------------------------------|
D-----------------------|-------------------------------------------------------------|
A-----------------------|-------------------------------------------------------------|
E-----------------------|-------------------------------------------------------------|


Guitar 2:
E-----------------------|------------------------------------------------10^12--10^12-|
B--10--12--13---12--10--|--10--12--13---12--10-------13---12--10-----10----B------B---|
G-----------------------|-----------------------12---------------12-------------------|
D-----------------------|-------------------------------------------------------------|
A-----------------------|-------------------------------------------------------------|
E-----------------------|-------------------------------------------------------------|


Chorus:


Riff 9: Play 2 times.


Guitar 1 & Guitar 2:
  Db5  E5   Db5 E5   A5  G5    C5  Db5      C5  Db5 A5  G5     Db5  E5     Db5 E5   A5  G5
E--------|-------------------|----------|-------------------|-----------|-------------------|
B--------|-------------------|----------|-------------------|-----------|-------------------|
G--------|-------------------|----------|-------------------|-----------|-------------------|
D--7---9-|---7---9---14--12--|--5---7---|---5---7---14--12--|---7---9---|---7---9---14--12--|
A--5---7-|---5---7---12--10--|--3---5---|---3---5---12--10--|---5---7---|---5---7---12--10--|
E--------|-------------------|----------|-------------------|-----------|-------------------|
  < ------Play 2 times----------------------------------------------------------------------| >


Chorus:


Db5 E5  Db5 E5      A5  G5
Afraid, afraid to shoot strangers


Db5 E5  Db5 E5      A5  G5
Afraid, afraid to shoot strangers


C5  Db5  C5  Db5    A5  G5
Afraid, afraid to shoot strangers


Db5 E5  Db5 E5      A5  G5
Afraid, afraid to shoot strangers


Now Guitar 2 plays Riff 7 (once) and Guitar 1 the solo:
Guitar 1: Solo:
E12^13^12----12-------12--------------------------------------------------------------------------|
B--H--P---15----15^17----15--13--12^13^12----12--15--13--12----12--10^11^10-----10----------------|
G-----------------B----------------H--P---14----------------14-------H--P----12----10-12-9^10^9^10|
D-----------------------------------------------------------------------------------------H--P--H-|
A-------------------------------------------------------------------------------------------------|
E-------------------------------------------------------------------------------------------------|


E-------------------------------------------------------------------------------------------------|
B-10(hold)----------------------------------12^13^12-----12--15^13^12----12----12^13^15^12--13^15-|
G-12^14^12--14^16--12/14--14^12---------------H--P----14-------P--P---14----14---H--H--P------B---|
D---B--R------B-------------P---14^12-------------------------------------------------------------|
A---------------------------------P---14----------------------------------------------------------|
E-----------------------------------------15------------------------------------------------------|


E--0--0--18--0--0--15--0--0--14--0--0--12--0--0--10--0--0--8--0--0--7--0--0--|
B----------------------------------------------------------------------------|
G----------------------------------------------------------------------------|
D----------------------------------------------------------------------------|
A----------------------------------------------------------------------------|
E----------------------------------------------------------------------------|


E--------------------------------------------|---------------------------------------------|
B--------------------------------------------|---------------------------------------------|
G--------------------------------------------|---------------------------------------------|
D-14^16^17^16^17^16^14--17^16^14^15--14------|--14^16^17^16--14/17--19^20^19--17^19^20^19--|
A---H--H--P--H--P--P------P--P--H-------17---|----H--H--P-------------H--P------H--H---P---|
E--------------------------------------------|---------------------------------------------|


E---------------------------------------------------------|
B---------------------------------------------------------|
G---------------------------------------------------------|
D--17^19^20^19--17^19^20^19^20^19--17^19^20^19^17---------|
A----H--H--P------H--H--P--H--P------H--H--P--P-----20----|
E---------------------------------------------------------|


E------------------------------------------12--13--12-----12--13--15--------15--17--17^19~--|
B------------------------------12--13/15---------------15-------------15/17-----------B-----|
G------12--14--15--14--12/14----------------------------------------------------------------|
D--14---------------------------------------------------------------------------------------|
A-------------------------------------------------------------------------------------------|
E-------------------------------------------------------------------------------------------|


Riff 10: Play 4 times.


Guitar 1 & Guitar 2:
Bass:F#5                  D5                     E5
E---------------------9--|--10--9-----------------|-------------------|
B----------9--10--12-----|---------12--10--9--10--|--12--10^9---------|
G------11----------------|------------------------|--------P----9--9--|
D------------------------|------------------------|-------------------|
A------------------------|------------------------|-------------------|
E------------------------|------------------------|-------------------|


    (B5)*  (C#5)*
     D5      E5
----------------------------------|
----------10--10--10--10^9--------|
------------------------P-----9---|
--11--12--------------------------|
----------------------------------|
----------------------------------|

Play Riff 6 (6 times).      The last 4 times Bruce sings: Afraid to shoot strangers


Ending:
Guitar 1 & Guitar 2:
Bass:F#5
E----------------|
B----------------|
G-----11~~~~-----|
D----------------|
A----------------|
E----------------|

4. FEAR IS THE KEY

-|-||--------------------------------------------|----------------------------|
-|-||--------------------------------------------|----------------------------|
-|6||---9-9-10---x-x-7/9-----9-9-10---x-x-14--13-|---9-9-10---x-x-7/9-----9-9-|
-|4||------------x-x------------------x-x--------|------------x-x-------------|
-|-||---7-7--8---x-x-5/7-----7-7--8---x-x-12--11-|---7-7--8---x-x-5/7-----7-7-|
-|-||0--------------------0----------------------|0--------------------0------|
     (INTRO)              e  s s  e   s s e    e (etc.)

--------------|---------------------------------------------------------------|
--------------|---------------------------------------------------------------|
------------4-|9-------------------------9------9--------7--5--4--------------|
--------------|---------------------------------------------------------------|
--------------|---------------------------------------------------------------|
--------------|---------------------------------------------------------------|
  Gtr.2     s |w                         s      e        s  e  e            |

--------------|--------------------------------------------|------------------|
--------------|--------------------------------------------|------------------|
-10-x-x--5--4-|---9-9-10---x-x-7/9-----9-9-10---x-x-14--13-|---9-9-10---x-x---|
----x-x-------|------------x-x------------------x-x--------|------------x-x---|
--8-x-x--3--2-|---7-7--8---x-x-5/7-----7-7--8---x-x-12--11-|---7-7--8---x-x---|
--------------|0--------------------0----------------------|0-----------------|
  Gtr.1 (end)

----------------------------|-|-------------|10--------x----------------||----|
--------------------------5-|-|10-----------|---10---9---6----5---------||----|
----------------------------|4|-------------|---------------------------||----|
----------------------------|4|-------------|---------------------------||----|
----------------------------|-|-------------|---------------------------||----|
----------------------------|-|-------------|---------------------------||----|
  Gtr.2                   s | | w            e  s   e  e s    e         ||  |

----------------------------|-|-------------|---------------------------||----|
----------------------------|-|-------------|---------------------------||----|
-7-/9-----9-9-10---x-x-5--4-|4|-------------|---------------------------||----|
-------------------x-x------|4|2------------|-----------------2---------||----|
-5-/7-----7-7--8---x-x-3--2-|-|0------------|-----------------0-5-------||----|
-------0--------------------|-|-------------|-------------------3-------||----|
  Gtr.1                        w                              s e

-----------------------------------|------------------------------------------|
--5-------0-----------------------|------------------------------------------|
-----------------------------------|------------------------------------------|
-----------------------------------|------------------------------------------|
-----------------------------------|------------------------------------------|
-----------------------------------|------------------------------------------|
 (gn) end Gtr.2                    |

-----------------------------------|------------------------------|-----------|
-----------------------------------|------------------------------|-----------|
-----------------------------------|------------------------------|-----------|
---------------------5-2---------5-|------------------5-2---------|-----------|
--2--2-2--2--2-2--2------4---2-4---|2--2-2--2--2-2--2-----4---2-4-|2--2-2--2--|
--0--0-0--0--0-0--0--------5-------|0--0-0--0--0-0--0-------5-----|0--0-0--0--|
 Rhy.Fig 1

----------------------|------------------------------|------------------------|
----------------------|------------------------------|------------------------|
----------------------|------------------------------|------------------------|
--------5-2---------2-|------------------5-2---------|------------------5-2---|
-2-2--2-----4---2-4---|2--2-2--2--2-2--2-----4---2-4-|2--2-2--2--2-2--2-------|
-0-0--0-------5-------|0--0-0--0--0-0--0-------2-----|0--0-0--0--0-0--0-------|
                                                   We live our lives__ in fe-

-----------|------------------------------|--------------------------------|--|
-----------|------------------------------|--------------------------------|--|
-----------|------------------------------|--------------------------------|--|
---------5-|------------------5-2---------|------------------5-2---------2-|--|
-4---2-4---|2--2-2--2--2-2--2-----4---2-4-|2--2-2--2--2-2--2-----4---2-4---|--|
---5-------|0--0-0--0--0-0--0-------5-----|0--0-0--0--0-0--0-------5-------|--|
 ver,__________                         in a choking sweat of fear.__________

-------------------------------|--------------------------------|-------------|
-------------------------------|--------------------------------|-------------|
-------------------------------|--------------------------------|-------------|
-------------------5-2---------|------------------5-2---------5-|-------------|
-2--2-2--2--2-2--2-----4---2-4-|2--2-2--2--2-2--2-----4---2-4---|2--2-2--2----|
-0--0-0--0--0-0--0-------5-----|0--0-0--0--0-0--0-------5-------|0--0-0--0----|
 _____                    In the heat of the night you can feel so much__

--------------------|--------------------------------|-----------------------|
--------------------|--------------------------------|-----------------------|
--------------------|--------------------------------|-----------------------|
--------5-2---------|------------------5-2---------2-|----------------2-2----|
-2-2--2-----4---2-4-|2--2-2--2--2-2--2-----4---2-4---|2--2-2--2--2-2--2-2----|
-0-0--0-------5-----|0--0-0--0--0-0--0-------5-------|0--0-0--0--0-0----0----|
            in the heat of the night I scream 'Don't touch!________(chorus)I

------------------------|---------------------|------------------------|------|
------------------------|---------------------|------------------------|------|
------------------------|---------------------|------------------------|------|
----5------------7------|---9--9----7---------|-5--------------7-------|---9--|
----3------------5------|---7--7----5---------|-3--------------5-------|---7--|
------------------------|0--------------------|------------------------|0-----|
 remember a time when we used not abused,  we fought all our battles in vain.

------------|-----------------------------|--------------------------------|--|
------------|-----------------------------|--------------------------------|--|
------------|-----------------------------|--------------------------------|--|
-9---7------|-5-------------7-------------|--------------------------------|--|
-7---5------|-3-------------5-------------|2--2-2--2--2-2--2--2-2--2--2-2--|--|
------------|-----------------------------|0--0-0--0--0-0--0--0-0--0--0-0--|--|
         I remember a time we thought that pas-sion was____  free,___ in the

-------------------------|--------------------------------------------|-------|
-------------------------|--------------------------------------------|-------|
-------------------------|---9-9-10---x-x-7/9-----9-9-10---x-x-14--13-|-------|
---5-------------7-------|------------x-x------------------x-x--------|-------|
---3-------------5-------|---7-7--8---x-x-5/7-----7-7--8---x-x-12--11-|-------|
-------------------------|0--------------------0----------------------|-------|
 heat of the night____    bod  -     ies___ a - flame,_______________________

-------------------------------------------|----------------------------------|
-------------------------------------------|----------------------------------|
-----------------------------------------7-|9----------------------------7----|
-------------------------------------------|----------------------------------|
-------------------------------------------|----------------------------------|
-------------------------------------------|----------------------------------|
 |Gtr.2                                                                     |

-------------------------------------------|----------------------------------|
-------------------------------------------|----------------------------------|
----9-9-10---x-x-7/9-----9-9-10---x-x-5--4-|---9-9-10---x-x-7/9-----9-9-10----|
-------------x-x------------------x-x------|------------x-x-------------------|
----7-7--8---x-x-5/7-----7-7--8---x-x-3--2-|---7-7--8---x-x-5/7-----7-7--8----|
-0--------------------0--------------------|0--------------------0------------|
 ____________________________________________________________________________

------------|------------------------------------------|-|-------------|------|
------------|------------------------------------------|-|-------------|------|
----------5-|--4---------------------------------------|4|-------------|5*----|
------------|------------------------------------------|4|2------------|------|
------------|------------------------------------------|-|0------------|------|
------------|------------------------------------------|-|-------------|------|
 |Gtr.2                                                      bar dives    |

------------|------------------------------------------|-|-------------|------|
------------|------------------------------------------|-|-------------|------|
-x-x-14--13-|---9-9-10---x-x-7/9-----9-9-10---x-x-5--4-|4|-------------|------|
-x-x--------|------------x-x------------------x-x------|4|2------------|-2----|
-x-x-12--11-|---7-7--8---x-x-5/7-----7-7--8---x-x-3--2-|-|0------------|-0-5--|
------------|0--------------------0--------------------|-|-------------|---3--|
 _ we live in fever.______               (end chorus)     w              s e

-|-|-----------------||----------------------------||-------------------------|
-|-|-----------------||----------------------------||-------------------------|
-|4|-----------------||----------------------------||-------------------------|
-|4|-----------------||----------------------------||-------------------------|
-|-|-----------------||----------------------------||-------------------------|
-|-|-----------------||----------------------------||-------------------------|
    Repeat Rhy.Fig 1.   (chorus)first 8 bars;then

------12-11--12--11------------------------|14------14-14-14-14--12-----------|
--------------------13--12-----------------|-----------------------------10-9-|
-------------------------------------------|----------------------------------|
-------------------------------------------|----------------------------------|
-------------------------------------------|----------------------------------|
-------------------------------------------|----------------------------------|
 |Grt.2                                                                     |

-------------------------------------------|----------------------------------|
-------------------------------------------|----------------------------------|
----9-9-10---x-x-7/9-----9-9-10---x-x-5--4-|---9-9-10---x-x-7/9------9-9-10---|
-------------x-x------------------x-x------|------------x-x-------------------|
----7-7--8---x-x-5/7-----7-7--8---x-x-3--2-|---7-7--8---x-x-5/7------7-7--8---|
-0--------------------0--------------------|0---------------------0-----------|
 Gtr.1                             we live______ in fever______         we

------------|-|------------------------------------------|-|------------------|
------------|-|------------------------------------------|-|------------------|
------------|6|10---9------9-------9-------10------------|-|------------------|
------------|4|------------------------------------------|-|------------------|
------------|-|------------------------------------------|-|------------------|
------------|-|------------------------------------------|-|------------------|
 |Gtr.2                                                    |

------------|-|------------------------------------------|-|------------------|
------------|-|------------------------------------------|-|------------------|
-x-x-14--13-|6|---9-9-10---x-x-7/9-----9-9-10---x-x-5--4-|-|------------------|
-x-x--------|4|------------x-x------------------x-x------|-|------------------|
-x-x-12--11-|-|---7-7--8---x-x-5/7-----7-7--8---x-x-3--2-|-|------------------|
------------|-|0--------------------0--------------------|-|------------------|
 live ___      in     fe - ver.

--|-|----------------------------|--------------------------|-----------------|
--|-|----------------------------|--------------------------|-----------------|
--|4|----------------------------|--------------------------|-----------------|
--|4|---------2-------------5----|-4--------------------7---|-5---------------|
--|-|---------0-------------3----|-2--------------------5---|-3---------------|
--|-|----------------------------|--------------------------|-----------------|
 Gtr 1 and 2    Now we live   in a world__ of uncertainty.    fear is the

--------|---------------------------|-------------------------|---------------|
--------|---------------------------|-------------------------|---------------|
--------|---------------------------|-------------------------|---------------|
-----9--|-7-------------------------|-2------------------5----|-4-------------|
-----7--|-5-------------------------|-0------------------3----|-2-------------|
--------|---------------------------|-------------------------|---------------|
 key   to what you want to be.    You don't get a say,   the majority gets

-------------------------|-----------------------------|---------------------|
-------------------------|-----------------------------|---------------------|
-------------------------|-----------------------------|---------------------|
------------7------------|-5-----------------9---------|-7-------------------|
------------5------------|-3-----------------7---------|-5-------------------|
-------------------------|-----------------------------|---------------------|
 its way,  you're out numbered by the ........ 'til the day you die._________

--------------------|------------------------|--------------------|-----------|
--------------------|------------------------|--------------------|-----------|
--------------------|------------------------|--------------------|-----------|
--------------------|------------------------|--------------------|-----------|
-2-----------2------|-2---------3-2-0-------0|-2-----------2------|-2---------|
-0-----------0------|-0---------------3-2-3--|-0-----------0------|-0---------|
     rest        rest     rest                     rest       rest      rest

------------|---------------------|--------------------------|----------------|
------------|---------------------|--------------------------|----------------|
------------|---------------------|--------------------------|----------------|
--5---------|---------------------|--------------------------|----------------|
--3--2-0----|-2-----------2-------|-2-----------3-2-0-------0|-2-----------2--|
---------3-2|-0-----------0-------|-0-----------------3-2-3--|-0-----------0--|
                  rest       rest        rest                      rest

------------------------------|---------------------|-------------------------|
------------------------------|---------------------|-------------------------|
------------------------------|---------------------|-------------------------|
------------------------------|---------------------|-------------------------|
-----------2------------------|-2-----------2-------|-------------------------|
-----------0-----------3-3-2-3|-0-----------0-------|-------------------------|
  rest          rest                rest       rest

------------------|-------------------------|------------------------|--------|
------------------|-------------------------|------------------------|--------|
------------------|----------------14b16r14p12-----------------------|--------|
----------2-4-5---|----4--5--7--------------|-14------------2-4-5----|-4-5-7--|
----------------3-|------------5------------|---------------------3--|--------|
------------------|-------------------------|------------------------|--------|
 |Gtr.2                                                                     |

--------------------|-------------------------|----------------------|--------|
--------------------|-------------------------|----------------------|--------|
--------------------|-------------------------|----------------------|--------|
--------------------|-5------------7----------|---9----9----7--------|-5------|
---2----------------|-3------------5----------|---7----7----5--------|-3------|
---0----------------|-------------------------|0---------------------|--------|
 Gtr.1    rest

--------|-------------------------|-----------------------|-------------------|
--------|-----------17b-----------|-----------------------|-------------------|
----14b16r14p12-------------------|---------------14b16r14p12-----------------|
--------|-------14---------2-4-5--|-------4-5-7-----------|---14--------------|
-5------|------------------------3|-------------5---------|-------------------|
--------|-------------------------|-----------------------|-------------------|
  |Gtr.2                                                                    |

--------|-------------------------|-----------------------|-------------------|
--------|-------------------------|-----------------------|-------------------|
--------|-------------------------|-----------------------|-------------------|
-7------|---9-----9-----7---------|-5-----------7---------|-------------------|
-5------|---7-----7-----5---------|-3-----------5---------|2--2-2--2--2-2--2--|
--------|0------------------------|-----------------------|0--0-0--0--0-0--0--|
 Gtr.1

-----------|-------------------------|---------------0------------------------|
-----------|-------------------------|---------------1------------------------|
-----------|-------------------------|---------------0------------------------|
---2-4-5---|-------4-5-7-------------|----------------------------------------|
---------3-|-------------5-----------|---0--0-0-0-0----------------------0--0-|
-----------|-------------------------|----------------------------------------|
 |Gtr.2                    (Fig 2) I |hear your silent heartbeat and I hear

-----------|-------------------------|----------------------------------------|
-----------|-------------------------|----------------------------------------|
-----------|-------------------------|----------------------------------------|
-----------|-5------------7----------|----------------------------------------|
-2-2-2--2-2|-3------------5----------|----------------------------------------|
-0-0-0--0-0|-------------------------|----------------------------------------|
  Gtr.1                            Gtr.1&2

----------0-------------|---------------0------------------|--------------0---|
----------0-------------|---------------0------------------|--------------0---|
----------0-------------|---------------2------------------|--------------0---|
------------------------|---------------4------------------|------------------|
--0-0-0-----------------|---0--0-0-0-0---------------------|--0--0-0-0-0------|
------------------------|----------------------------------|------------------|
  your silent cries.                          Oh__________

-----------|-------------0-------|-------------0------|-------------0--------|
-----------|-------------1-------|-------------0------|-------------0--------|
-----------|-------------0-------|-------------0------|-------------2--------|
-----------|---------------------|--------------------|-------------4--------|
-----------|-0--0-0-0-0----------|-0--0-0-0-0---------|-0--0-0-0-0-----------|
-----------|---------------------|--------------------|----------------------|
     lies________________________________________ and lies.

-------------0------|-------------0--------|-------------0--------|-----------|
-------------0------|-------------3--------|-------------2--------|-----------|
-------------0------|-------------2--------|-------------2--------|-----------|
--------------------|----------------------|----------------------|-----------|
-0--0-0-0-0---------|-2--2-2-2-2-----------|-2--2-2-2-2-----------|-2--2-2-2--|
--------------------|----------------------|----------------------|-----------|
              The kids have lost their freedom and nobody cares 'til

----0------|-------------0-------|-------------0-------|-------------0-------|
----3------|-------------2-------|-------------1-------|-------------0-------|
----2------|-------------2-------|-------------0-------|-------------0-------|
-----------|---------------------|---------------------|---------------------|
-2---------|-2--2-2-2-2----------|-0--0-0-0-0----------|-0--0-0-0-0----------|
-----------|---------------------|---------------------|---------------------|
 somebody famous dies.    They're telling lies_________ and lies__ and lies

-------------0------|-------------0-------|-|----------|---------|------------|
-------------0------|-------------0-------|-|----------|---------|------------|
-------------2------|-------------0-------|6|-2----5---|-4----7--|-5----9-----|
-------------4------|---------------------|8|-2---






Like us on Facebook