Devil With A Black Dress On Bass Tab - Jack Off Jill






Devil With The Black Dress On (bass)
by Jack Off Jill
Tabbed by Ottis (GoblinKing9@yahoo.com)

G------------------
D------------------
A--5----3p0-3/5---
E------------------
  Intro / Verse / Outro

G--------------------
D--------3p 0--------
A--5--3---------3/5--
E-------------------- x3
  Chorus

G-----------------
D-----------------
A--5--3--3p0-3/5--
E-----------------
  Chorus (cont.)






Like us on Facebook