Horrible Bass Tab - Jack Off Jill






Song: Horrible
Artist: Jack Off Jill
Tabbed by: Allison (PrfctCircleTooL@hotmail.com)

Verse
G----------------------
D----------------------
A--01-01-01-01--44-33--
E----------------------

Chorus
G--------------------
D--------------------
A--01-01-01-01--4-3--
E--------------------

Durin "La La..."
G-------------------------
D-------------------------
A--3--3-2--2-1--1-0--0-3--
E-------------------------

Ending
G-----------------
D------3-2-1-0----
A--1-0---------4--
E-----------------






Like us on Facebook