Hypocrite Tab - Jack Off Jill






E----------------
B----------------
G----------------
D--7-7---5-5-5---
A--7-7---5-5-5---
E--5-5---3-3-3---
(palm mute the G) Verse and normal Chorus


E------------------------------------
B------------------------------------
G------------------------------------
D--7-7-7---7-7-7---7-7-7-7---7-7-7---
A--7-7-7---7-7-7---7-7-7-7---7-7-7---
E--5-5-5---5-5-5---5-5-5-5---5-5-5---
Chorus "hyp-hyp-hyp-hpy-hypocrite"


E----------------------------
B----------------------------
G----------------------------
D--9-9--9-9--9--9---9--------
A--9-9--9-9--9--9---9--------
E--7-7--7-7--7--7---7---12--

I am pretty sure this is right but if not thats ok. :D tabbed BY KELSEY!! :D






Like us on Facebook