My Cat Bass Tab - Jack Off Jill






My Cat (bass)
by Jack Off Jill
Tabbed by Ottis (GoblinKing9@yahoo.com)


G----------------
D----------------
A-------7---6----
E---5------------
  Verse ("my cat..cool cat..")

G-----------------------
D-----------------------
A-------7----6----5-----
E---5-------------------
  Verse ("my cat is everywhere..")

G----------------
D----------------
A-------7---6----
E---5------------
  Chorus

G-----------------------
D-----------------------
A-------7----6----5-----
E---5-------------------
  Chorus (cont.) [Alternate these two riffs]

G--------------------
D--------------------
A---5-5-5-5--7-6-5---
E--------------------
  Bridge ("my cat isn't crazy...")






Like us on Facebook