Poor Impulse Control Bass Tab - Jack Off Jill






Jack Off Jill
Poor Impulse Control
Bass Tab

Verse 
G------------------------- 
D-----2-3-2--------------- 
A--0---------3-33-2-3-0--- 
E------------------------- 

Chorus 
G----------------5---------- 
D-----2---3-33----33-2------ 
A--0----------------------0- 
E--------------------------- 
(I know the chorus is wrongbut what the hellits close) 
Tabbed by Son of Sam.

====






Like us on Facebook