Spit And Rape Bass Tab - Jack Off Jill






this song follows suit with most of the rest of the J Off J songs, the bassline is just 
more elaborate then their usual playing styler

Verse

G-------0-2-2---4-4-------------|
D-----3-------3-----3-3---------|
A-5-5------------------2-2--3-4-|
E-------------------------------|

Chorus

G---------------------|
D-000-2-3-2-0-0-2-3-2-|
A---------------------|
E---------------------|

Bridge

G---------------------------------|
D-----------------------2-2-2-2-2-|
A-2-2-2-3-3-3-3-3-4-4-4-----------|
E---------------------------------|

Second verse

G-------0-2-2---4-4----4-4------|
D-----3-------3-----3-3---------|
A-5-5-----------------------3-4-|
E-------------------------------|






Like us on Facebook