Supersadist Bass Tab - Jack Off Jill






Super Sadist (bass)
by Jack Off Jill
Tabbed by Ottis (GoblinKing9@yahoo.com)


G-----------------
D-----------------
A-----3------4----
E--3------4-------
  Verse


G-----------------
D-----------------
A-----3-----------
E--3------4-------
  Chorus






Like us on Facebook