Underjoyed Bass Tab - Jack Off Jill






I particularly enjoyed this song, its more manson esque i guess in the slower liting 
it sets with the bassline. enjoy. im sure you can figure out where each part is

Intro/verse

G------------------------|
D------------------------|
A------------------------|
E-0-00-2-0-3-0-2-0-3-0-5-|

Chorus

G-------------|------------|
D-------------|------------|
A-------------|------------|
E-0-0-2-22-4-|-0-0-3-33-1--|

Bridge

G-----4-------2-5-2---------------|
D---5---5-----------3---0-4-0-----|
A-5-------5-3-----------------2-3-|
E---------------------5-----------|

Beginning of third verse(after bridge)

G-----
D-----
A-----
E-3h5






Like us on Facebook