Vivica Bass Tab - Jack Off Jill






Great song for bass, and not too hard.

/ Slide up
~~ Hold note

Intro and Verse
G:---------------------------------------|
D:---------------------------------------|
A:-5-5-5-5-8-7-3-3-3-3-6-5---------------|
E:-------------------------5-5-3/5-5-5-5-|

Chorus
G:-----------------------------------------------------|
D:-----------------------------------------------------|
A:---------------------------------------3-3-3-3-3-3-3-|
E:-5-5-5-5-5-3-3-3-3-3-3-3-3-0-3-3-3-3-3---------------|

Bridge
G:--------------------------------------------------|
D:--------------------------------------------------|
A:8~-7~-5~-8~-10~-5~   (That's a TEN, not a 1 and 0-|
E:--------------------------------------------------|






Like us on Facebook