Another Way To Die Tab - Jack White






Another Way To Die (James Bond Quantum Of Solucion Soundtrack)
 by Alicia Keys feat. Jack Black of "The White Stripes"

So here is the guitar part of the song. 

Intro:                            

E5
e|---------------------------------|
B|---------------------------------|
G|---------------------------------|
D|---------------------------------|  
A|------------5---------7----------|
E|--0--3--0-----0--3-0-------------|

Then the Interlude

e|-------------------------|
B|-------------------------|
G|-------------------------|
D|-------------------------|
A|--------------2----------|
E|--2-3-5-2-3-5-0----------|


e|-------------------------|
B|-------------------------|
G|-------------------------|
D|-------------------------|
A|-------------------------|
E|--0-3-0------------------|

And here the chords for the main riff:

(B5, G5, E5)
e|----------------------------|
B|----------------------------|
G|---4------------------------|
D|---4---5----2---------------|
A|---2---5----2---------------|
E|-------3----0---------------|

The Chorus Riff is only a lilbit different:


e|---------------------------------|
B|---------------------------------|
G|---44-------22---2-22--22--------|
D|---44--55---22---2-22--22--------|
A|---22--55---00---0-00--00--------|
E|-------33------------------------|

e|----------------------------------|
B|----------------------------------|
G|---44-------22---2-22--22---------|
D|---44--55---22---2-22--22-----2---|
A|---22--55---00---0-00--00-----2---|
E|-------33---------------------0---|

Some time later comes this :

e|-------------------------------------------------------------------|
B|-------------------------------------------------------------------|
G|-------------------------------------------------------------------|
D|--------5--4-----7-7-7-7-------------------5-4---------------------| 
A|-----5--------5-------------------------5------5--7-7-7-7----------|
E|--7---------------------5-5-5-5------7--------------------0-0-0-0--|


Just listen to the different parts and compare with this tab. 
You should be able to figure the solo out by ur own. 
Have fun with it.






Like us on Facebook