Love Is The Truth Tab - Jack White




Love Is The Truth  Jack White Coke Ad

G  320033
F - 133211
F#5 - 244xxx

-Intro
(let notes ring throughout)

G section  F section
------------------3-----------------|------------------|
----------3-----------3------3------|---------1--------|
------0-------0-----------0----0----|-----2-------2----|
------------------------------------|------------------|
------------------------------------|------------------|
----3---3-------3-------------------|---1---1-------1--|

   
G
one thing youll learn you can bet
G
is that love is as good as it gets
FG
and youll get more if you give it


G
you can say that loves not really there
G                                      F
and pretend that you dont really care   
G                              G
but youll do better to live it


G
its the right thing to do
   F
and you know it
            G
its inside of you
   F
so just show it
    G
love is the truth 
 F
and its inside of you 
G     F
ba baba ba ba
G
its the right thing to do 


  G 
in the arms of a mother and father
  G
in the arms of a son and a daughter 
  F
its there if you want it
G
oh oh oh oh


  G
in the water the sun passes through
  G
in the air that is all around you
  F
its everywhere
  F#5
you just have to care


G
its the right thing to do
   F
and you know it
G
and its inside of you
   F
so just show it
   G
love is the truth 
        F
ba baba ba ba
     G
and its inside of you
F
ba baba ba ba
G
its the right thing to do


-------------------------------|
-------------------------------|
-------------------------------|
-------------------------------|
----2-5-2----------------------|
----------3-3/5-3-0-3/5-3------|

ĂŽnscrie-te la newsletter


Join the ranks ! LIKE us on Facebook