Cell Phone Tab - Jacks Mannequin






-------------------------------------------------------------------------------
     Cell Phone (EP Version)  Jacks Mannequin
-------------------------------------------------------------------------------
Tabbed by: James
Email: jwk16@duke.edu

Solid song from the In Valleys- EP, released a little before The Glass Passenger.  Its
first tab, sorry if theres anything wrong, I think it sounds right though.  There is
some other guitar tracks over the last chorus, but theyre pretty low in the mix and I 
here them that well, they are similar to the intro riff.  Have fun.

Tuning: Standard

Intro:
Piano riff, followed by clean electric guitar:
e|--6-5----------------------------------------------------------------------|
B|------6-8---6------6-6-8--6-6----------------------------------------------|
G|---------------------------------------------------------------------------|
D|---------------------------------------------------------------------------|
A|---------------------------------------------------------------------------|
E|---------------------------------------------------------------------------|

Verse:
I have become increasingly overwhelmed
But not discouraged
So now we leave the infirmary,
Feeling well, but lacking
Courage (Courage)
(intro guitar riff)
And now the rockets fly above
Passing over Cape Canaveral
There is the woman with the drugs
In the launch pad, in the launch pad

Chorus:
Two guitar parts, lead clean electric guitar and rhythm clean electric guitar
(lead in tab, rhythm chords above)
   B flat maj                          E flat maj         F maj
e|------------------------------------------------------------------------------|
B|-----6-------8-------6------ 8-6-----8------8------------10-------------------|
G|---7-------7-------7-------7--------------------------------------------------|
D|-8-------8-------8-------8----------------------------------------------------|
A|------------------------------------------------------------------------------|
E|------------------------------------------------------------------------------|

And shes gonna ring me up on my cellular phone
So I know Im not alone
In a world full of vampires
Cmon honey, talk me down
On my cellular phone
Cuz I cant get home
Im a slave to the wires

Post Chorus:
Rhythm clean electric guitar:
G      F      B flat

Ive done this before
I can do it more

Verse 2:
I have become increasingly overwhelmed
But not in public
Im not so patient when they stare
Theres a fighter, somewhere underneath
The skin and bones
And do you know what I mean?
What I mean when I say
That this girl has got a thing for my machine

Chorus
Post Chorus

Breakdown:
Rhythm clean electric guitar:
F    Dmin     B flat

And Ive given everything and more
Sometimes convinced I have the world to carry
Every day is more that I get strong
From dusk to dawn I wont be shaking
Make sure they take me in the night
I dont think my signals fading
For you
For you to ring, for you to ring

Chorus
Post Chorus

Outro:
Intro riff, then:

e|---6-5------------------------8------------------------------------------------|
B|--------6-8-6-------6-6-8-6----------------------------------------------------|
G|-------------------------------------------------------------------------------|
D|-------------------------------------------------------------------------------|
A|-------------------------------------------------------------------------------|
E|-------------------------------------------------------------------------------|

| /  slide up
|   slide down
| h  hammer-on
| p  pull-off
| ~  vibrato
| +  harmonic
| x  Mute note
===============================================================================

ĂŽnscrie-te la newsletter


Like us on Facebook