Dark Blue Intro (ver3) Tab - Jacks Mannequin






Standard Tuning

Piano (Transcribed for Guitar)(Guitar 1)

e---------------------------------------------------|
B---------------------------------------------------|
G----8-8--7-7--5-5--7-7-----------------------------|
D-----8-8--8-8--8-8--8-8----------------------------|
A---------------------------------------------------|
E---------------------------------------------------|


Guitar 2 (Alternate Chords Each Time The Piano Part is Repeated)

e---------------------------------------------------|
B---------------------------------------------------|
G---------------------------------------------------|
D---8~---5~----8~----5~-----------------------------|
A---6~---6~----6~----6~-----------------------------|
E---------------------------------------------------|

Guitar 2 (Come in after Piano is played Twice)

e|-6--3-----6--3------------|---6--3-----6--3---------------3--6-----------|
B|-------4--------4--6--4---|---------4---------4--6--4--6-----------------|
G|--------------------------|----------------------------------------------|
D|--------------------(2x)--|----------------------------------------------|
A|--------------------------|----------------------------------------------|
E|--------------------------|----------------------------------------------|

ĂŽnscrie-te la newsletter


Like us on Facebook