Dark Blue Intro Tab - Jacks Mannequin






-------------------------------------------------------------------------------
     Dark Blue - Jack's Mannequin
-------------------------------------------------------------------------------
Tabbed by: Kboat

I was just listening to this song and thought the intro sounded pretty easy... i hope this is right.

Tuning: Standard

e|---6----------6------------------------------------------------------------|
B|------8----------8-----6---------------------------------------------------|
G|---------8----------8-----8------------------------------------------------|
D|---------------------------------------------------------------------------|
A|---------------------------------------------------------------------------|
E|---------------------------------------------------------------------------|

e|---6----------6------------------------------------------------------------|
B|------8----------8-----6---------------------------------------------------|
G|---------8----------8-----8------------------------------------------------|
D|---------------------------------------------------------------------------|
A|---------------------------------------------------------------------------|
E|---------------------------------------------------------------------------|

e|---6----------6-----------------------6------------------------------------|
B|------8----------8-----6------6---8----------------------------------------|
G|---------8----------8-----8------------------------------------------------|
D|---------------------------------------------------------------------------|
A|---------------------------------------------------------------------------|
E|---------------------------------------------------------------------------|


| /  slide up
|   slide down
| h  hammer-on
| p  pull-off
| ~  vibrato
| +  harmonic
| x  Mute note
===============================================================================

ĂŽnscrie-te la newsletter


Like us on Facebook