The Mixed Tape (ver2) Tab - Jacks Mannequin






[Joshua Oliveira]

[Jack's Mannequin]
[Everything In Transit]
[The Mixed Tape]

[Standard Tuning]
[Guitar 1]

[Intro] - [00:00] - [00:14]
- --------------------------------------------------------------------------|
- --------------------------------------------------------------------------|
- -6--6-x-5--x-x-5--5-x-10---6--6-x-5--x-x-5--5-x-10---6--6-x-5--x-x-5--5-x-|
- -7--7-x-6--x-x-6--6-x-8----7--7-x-6--x-x-6--6-x-8----7--7-x-6--x-x-6--6-x-|
- -5--5-x-4--x-x-4--4-x-6----5--5-x-4--x-x-4--4-x-6----5--5-x-4--x-x-4--4-x-|
- -6--6-x----x-x------x-6----6--6-x----x-x------x-6----6--6-x----x-x------x-|

  -------------------------------|
  -------------------------------|
  -10---6--6-x-5--x-x-5--5-x-10--|
  -8----7--7-x-6--x-x-6--6-x-8---|
  -6----5--5-x-4--x-x-4--4-x-6---|
  -6----6--6-x----x-x------x-6---|

[Fill 1] - [00:14] - [00:19]
- --------------------------------------------------------------------|
- --------------------------------------------------------------------|
- -----------------------------------8-8-8-8-8-8-8-8-8-8-8-8-8-8-8-8--|
- -8-8-8-8-8-8-8-8--6-6-6-6-6-6-6-6--8-8-8-8-8-8-8-8-8-8-8-8-8-8-8-8--|
- -8-8-8-8-8-8-8-8--6-6-6-6-6-6-6-6--6-6-6-6-6-6-6-6-6-6-6-6-6-6-6-6--|
- -6-6-6-6-6-6-6-6--4-4-4-4-4-4-4-4-----------------------------------|

[Verse 1] - [00:19] - [00:23]
- --------------------------|
- --------------------------|
- -6--6-x-5--x-x-5--5-x-10--|
- -7--7-x-6--x-x-6--6-x-8---|
- -5--5-x-4--x-x-4--4-x-6---|
- -6--6-x----x-x------x-6---|

[Fill 2] - [00:23] - [00:30]
- --------------------------------------------------------------------------|
- --------------------------------------------------------------------------|
- -----------------------------------8-8-8-8-8-8-8-8-8-8-8-8-8-8-8-8--8-8-8-|
- -8-8-8-8-8-8-8-8--6-6-6-6-6-6-6-6--8-8-8-8-8-8-8-8-8-8-8-8-8-8-8-8--8-8-8-|
- -8-8-8-8-8-8-8-8--6-6-6-6-6-6-6-6--6-6-6-6-6-6-6-6-6-6-6-6-6-6-6-6--6-6-6-|
- -6-6-6-6-6-6-6-6--4-4-4-4-4-4-4-4-----------------------------------------|

  ---------------------------|
  ---------------------------|
  -8-8-8-8-8-8-8-8-8-8-8-8-8-|
  -8-8-8-8-8-8-8-8-8-8-8-8-8-|
  -6-6-6-6-6-6-6-6-6-6-6-6-6-|
  ---------------------------|

[Chorus 1] - [00:30] - [00:49]
- ---------------------------------------------------------------------------|
- ---------------------------------------------------------------------------|
- -------------------------------6--6-6--6-6-6--8--8-8--8-8-8----------------|
- -4--4-4--4-4-4--8--8-8--8-8-8--6--6-6--6-6-6--8--8-8--8-8-8--4--4-4--4-4-4-|
- -4--4-4--4-4-4--8--8-8--8-8-8--4--4-4--4-4-4--6--6-6--6-6-6--4--4-4--4-4-4-|
- -2--2-2--2-2-2--6--6-6--6-6-6--------------------------------2--2-2--2-2-2-|

  ---------------------------------------------------------------------------|
  ---------------------------------------------------------------------------|
  ---------------------------------------------------------------------------|
  -8--8-8--8-8-8--6--6-6--6-6-6--6--6-6--6-6-6--4--4-4--4-4-4--8--8-8--8-8-8-|
  -8--8-8--8-8-8--6--6-6--6-6-6--6--6-6--6-6-6--4--4-4--4-4-4--8--8-8--8-8-8-|
  -6--6-6--6-6-6--4--4-4--4-4-4--4--4-4--4-4-4--2--2-2--2-2-2--6--6-6--6-6-6-|

  ---------------------------------------------------------------------------|
  ---------------------------------------------------------------------------|
  -6--6-6--6-6-6--8--8-8--8-8-8----------------------------------------------|
  -6--6-6--6-6-6--8--8-8--8-8-8--4--4-4--4-4-4--8--8-8--8-8-8--6--6-6--6-6-6-|
  -4--4-4--4-4-4--6--6-6--6-6-6--4--4-4--4-4-4--8--8-8--8-8-8--6--6-6--6-6-6-|
  -------------------------------2--2-2--2-2-2--6--6-6--6-6-6--4--4-4--4-4-4-|

  ---------------|
  ---------------|
  ---------------|
  -6--6-6--6-6-6-|
  -6--6-6--6-6-6-|
  -4--4-4--4-4-4-|

[Verse 2 1st Half] - [00:49] - [00:59]
- ----------------------------------------------------|
- ----------------------------------------------------|
- -6--6-x-5--5---5--5-x-10---6--6-x-5--5---5--5-x-10--|
- -7--7-x-6---6--6--6-x-8----7--7-x-6---6--6--6-x-8---|
- -5--5-x-4------4--4-x-6----5--5-x-4------4--4-x-6---|
- -6--6-x-------------x-6----6--6-x-------------x-6---|

[Piano] - [00:59] - [01:04]

[Fill 3] - [01:04] - [01:08]
- --------------------------------------------------------------------|
- --------------------------------------------------------------------|
- -----------------------------------8-8-8-8-8-8-8-8-8-8-8-8-8-8-8-8--|
- -8-8-8-8-8-8-8-8--6-6-6-6-6-6-6-6--8-8-8-8-8-8-8-8-8-8-8-8-8-8-8-8--|
- -8-8-8-8-8-8-8-8--6-6-6-6-6-6-6-6--6-6-6-6-6-6-6-6-6-6-6-6-6-6-6-6--|
- -6-6-6-6-6-6-6-6--4-4-4-4-4-4-4-4-----------------------------------|

[Verse 2 2nd Half] - [01:08] - [01:13]
- ----------------------------------------------------|
- ----------------------------------------------------|
- -6--6-x-5--5---5--5-x-10---6--6-x-5--5---5--5-x-10--|
- -7--7-x-6---6--6--6-x-8----7--7-x-6---6--6--6-x-8---|
- -5--5-x-4------4--4-x-6----5--5-x-4------4--4-x-6---|
- -6--6-x-------------x-6----6--6-x-------------x-6---|

[Fill 4] - [01:13] - [01:18]
- --------------------------------------------------------------------|
- --------------------------------------------------------------------|
- ------------------6-6-6-6-6-6-6-6-----------------------------------|
- -8-8-8-8-8-8-8-8--6-6-6-6-6-6-6-6--6-6-6-6-6-6-6-6-6-6-6-6-6-6-6-6--|
- -8-8-8-8-8-8-8-8--4-4-4-4-4-4-4-4--6-6-6-6-6-6-6-6-6-6-6-6-6-6-6-6--|
- -6-6-6-6-6-6-6-6-------------------4-4-4-4-4-4-4-4-4-4-4-4-4-4-4-4--|

[Piano/Guitar 2] - [01:18] - [01:23]

[Chorus 2] - [01:23] - [01:41]
- ---------------------------------------------------------------------------|
- ---------------------------------------------------------------------------|
- -------------------------------6--6-6--6-6-6--8--8-8--8-8-8----------------|
- -4--4-4--4-4-4--8--8-8--8-8-8--6--6-6--6-6-6--8--8-8--8-8-8--4--4-4--4-4-4-|
- -4--4-4--4-4-4--8--8-8--8-8-8--4--4-4--4-4-4--6--6-6--6-6-6--4--4-4--4-4-4-|
- -2--2-2--2-2-2--6--6-6--6-6-6--------------------------------2--2-2--2-2-2-|

  ---------------------------------------------------------------------------|
  ---------------------------------------------------------------------------|
  ---------------------------------------------------------------------------|
  -8--8-8--8-8-8--6--6-6--6-6-6--6--6-6--6-6-6--4--4-4--4-4-4--8--8-8--8-8-8-|
  -8--8-8--8-8-8--6--6-6--6-6-6--6--6-6--6-6-6--4--4-4--4-4-4--8--8-8--8-8-8-|
  -6--6-6--6-6-6--4--4-4--4-4-4--4--4-4--4-4-4--2--2-2--2-2-2--6--6-6--6-6-6-|

  ---------------------------------------------------------------------------|
  ---------------------------------------------------------------------------|
  -6--6-6--6-6-6--8--8-8--8-8-8----------------------------------------------|
  -6--6-6--6-6-6--8--8-8--8-8-8--4--4-4--4-4-4--8--8-8--8-8-8--6--6-6--6-6-6-|
  -4--4-4--4-4-4--6--6-6--6-6-6--4--4-4--4-4-4--8--8-8--8-8-8--6--6-6--6-6-6-|
  -------------------------------2--2-2--2-2-2--6--6-6--6-6-6--4--4-4--4-4-4-|

  ---------------|
  ---------------|
  ---------------|
  -6--6-6--6-6-6-|
  -6--6-6--6-6-6-|
  -4--4-4--4-4-4-|

[Bridge] - [01:41] - [01:56]
- ---------------------------------------------------------------------------|
- ---------------------------------------------------------------------------|
- ---------------------------------------------------------------------------|
- -4--4-4--4-4-4--8--8-8--8-8-8--6--6-6--6-6-6--6--6-6--6-6-6--4--4-4--4-4-4-|
- -4--4-4--4-4-4--8--8-8--8-8-8--6--6-6--6-6-6--6--6-6--6-6-6--4--4-4--4-4-4-|
- -2--2-2--2-2-2--6--6-6--6-6-6--4--4-4--4-4-4--4--4-4--4-4-4--2--2-2--2-2-2-|

  ---------------------------------------------------------------------------|
  ---------------------------------------------------------------------------|
  ---------------------------------------------------------------------------|
  -8--8-8--8-8-8--6--6-6--6-6-6--6--6-6--6-6-6--4--4-4--4-4-4--8--8-8--8-8-8-|
  -8--8-8--8-8-8--6--6-6--6-6-6--6--6-6--6-6-6--4--4-4--4-4-4--8--8-8--8-8-8-|
  -6--6-6--6-6-6--4--4-4--4-4-4--4--4-4--4-4-4--2--2-2--2-2-2--6--6-6--6-6-6-|

  ------------------------------|
  ------------------------------|
  ------------------------------|
  -6--6-6--6-6-6--6--6-6--6-6-6-|
  -6--6-6--6-6-6--6--6-6--6-6-6-|
  -4--4-4--4-4-4--4--4-4--4-4-4-|

[Piano] - [01:56] - [2:20]

[Chorus 3] - [02:20] - [02:39]
- ---------------------------------------------------------------------------|
- ---------------------------------------------------------------------------|
- -------------------------------6--6-6--6-6-6--8--8-8--8-8-8----------------|
- -4--4-4--4-4-4--8--8-8--8-8-8--6--6-6--6-6-6--8--8-8--8-8-8--4--4-4--4-4-4-|
- -4--4-4--4-4-4--8--8-8--8-8-8--4--4-4--4-4-4--6--6-6--6-6-6--4--4-4--4-4-4-|
- -2--2-2--2-2-2--6--6-6--6-6-6--------------------------------2--2-2--2-2-2-|

  ---------------------------------------------------------------------------|
  ---------------------------------------------------------------------------|
  ---------------------------------------------------------------------------|
  -8--8-8--8-8-8--6--6-6--6-6-6--6--6-6--6-6-6--4--4-4--4-4-4--8--8-8--8-8-8-|
  -8--8-8--8-8-8--6--6-6--6-6-6--6--6-6--6-6-6--4--4-4--4-4-4--8--8-8--8-8-8-|
  -6--6-6--6-6-6--4--4-4--4-4-4--4--4-4--4-4-4--2--2-2--2-2-2--6--6-6--6-6-6-|

  ---------------------------------------------------------------------------|
  ---------------------------------------------------------------------------|
  -6--6-6--6-6-6--8--8-8--8-8-8----------------------------------------------|
  -6--6-6--6-6-6--8--8-8--8-8-8--4--4-4--4-4-4--8--8-8--8-8-8--6--6-6--6-6-6-|
  -4--4-4--4-4-4--6--6-6--6-6-6--4--4-4--4-4-4--8--8-8--8-8-8--6--6-6--6-6-6-|
  -------------------------------2--2-2--2-2-2--6--6-6--6-6-6--4--4-4--4-4-4-|

  ---------------|
  ---------------|
  ---------------|
  -6--6-6--6-6-6-|
  -6--6-6--6-6-6-|
  -4--4-4--4-4-4-|

[Piano] - [02:39] - [03:11]


[Standard Tuning]
[Guitar 2]

[Intro] - [00:00] - [00:14]

[Fill 1] - [00:14] - [00:19]
- ----------------------------------------------------------------|
- -----6-6-4-4---------6-6-4-4---------6-6-4-4--------6-6-4-4-----|
- -3-3---------6-6-------------6-6-3-3---------6-6-3-3--------6-6-|
- -----------------6-6--------------------------------------------|
- ----------------------------------------------------------------|
- ----------------------------------------------------------------|

[Verse 1] - [00:19] - [00:23]
- ----
- ----
- -3~-
- ----
- ----
- ----

[Fill 2] - [00:23] - [00:30]
- -------------------------------------------------------------------|
- -----6-6-4-4---------6-6-4-4---------6-6-4-4--------6-6-4-4--------|
- -3-3---------6-6-------------6-6-3-3---------6-6-3-3--------6-6-7b-|
- -----------------6-6-----------------------------------------------|
- -------------------------------------------------------------------|
- -------------------------------------------------------------------|
                                                                  +

[Chorus 1] - [00:30] - [00:49]
- ---------------------------------------------------------------------------|
- ---------------------------------------------------------------------------|
- -------------------------------6--6-6--6-6-6--8--8-8--8-8-8----------------|
- -4--4-4--4-4-4--8--8-8--8-8-8--6--6-6--6-6-6--8--8-8--8-8-8--4--4-4--4-4-4-|
- -4--4-4--4-4-4--8--8-8--8-8-8--4--4-4--4-4-4--6--6-6--6-6-6--4--4-4--4-4-4-|
- -2--2-2--2-2-2--6--6-6--6-6-6--------------------------------2--2-2--2-2-2-|

  ---------------------------------------------------------------------------|
  ---------------------------------------------------------------------------|
  ---------------------------------------------------------------------------|
  -8--8-8--8-8-8--6--6-6--6-6-6--6--6-6--6-6-6--4--4-4--4-4-4--8--8-8--8-8-8-|
  -8--8-8--8-8-8--6--6-6--6-6-6--6--6-6--6-6-6--4--4-4--4-4-4--8--8-8--8-8-8-|
  -6--6-6--6-6-6--4--4-4--4-4-4--4--4-4--4-4-4--2--2-2--2-2-2--6--6-6--6-6-6-|

  ---------------------------------------------------------------------------|
  ---------------------------------------------------------------------------|
  -6--6-6--6-6-6--8--8-8--8-8-8----------------------------------------------|
  -6--6-6--6-6-6--8--8-8--8-8-8--4--4-4--4-4-4--8--8-8--8-8-8--6--6-6--6-6-6-|
  -4--4-4--4-4-4--6--6-6--6-6-6--4--4-4--4-4-4--8--8-8--8-8-8--6--6-6--6-6-6-|
  -------------------------------2--2-2--2-2-2--6--6-6--6-6-6--4--4-4--4-4-4-|

  ---------------|
  ---------------|
  ---------------|
  -6--6-6--6-6-6-|
  -6--6-6--6-6-6-|
  -4--4-4--4-4-4-|

[Verse 2 1st Half] - [00:49] - [00:59]

[Piano] - [00:59] - [01:04]

[Fill 3] - [01:04] - [01:08]
- ----------------------------------------------------------------|
- -----6-6-4-4---------6-6-4-4---------6-6-4-4--------6-6-4-4-----|
- -3-3---------6-6-------------6-6-3-3---------6-6-3-3--------6-6-|
- -----------------6-6--------------------------------------------|
- ----------------------------------------------------------------|
- ----------------------------------------------------------------|

[Verse 2 2nd Half] - [01:08] - [01:13]
- -----7b---12b-             |---------------------------------- |
- --------------             | Listen for these random bends..-- |
- -3~-----------             | They are there.                -- |
- --------------             |---------------------------------- |
- --------------            ------------------------------------ |
- --------------            ------------------------------------ |
       ^     ^               |
       |     |               |
       -----------------------

[Fill 4] - [01:13] - [01:23]
- -------------------------------------------------------------------------|
- -----6-6-4-4---------6-6-4-4---------6-6-4-4--------6-6-4-4-----7b-6b-4b-|
- -3-3---------6-6-------------6-6-3-3---------6-6-3-3--------6-6----------|
- -----------------6-6-----------------------------------------------------|
- -------------------------------------------------------------------------|
- -------------------------------------------------------------------------|

[Chorus 2] - [01:23] - [01:41]
- ---------------------------------------------------------------------------|
- ---------------------------------------------------------------------------|
- -------------------------------6--6-6--6-6-6--8--8-8--8-8-8----------------|
- -4--4-4--4-4-4--8--8-8--8-8-8--6--6-6--6-6-6--8--8-8--8-8-8--4--4-4--4-4-4-|
- -4--4-4--4-4-4--8--8-8--8-8-8--4--4-4--4-4-4--6--6-6--6-6-6--4--4-4--4-4-4-|
- -2--2-2--2-2-2--6--6-6--6-6-6--------------------------------2--2-2--2-2-2-|

  ---------------------------------------------------------------------------|
  ---------------------------------------------------------------------------|
  ---------------------------------------------------------------------------|
  -8--8-8--8-8-8--6--6-6--6-6-6--6--6-6--6-6-6--4--4-4--4-4-4--8--8-8--8-8-8-|
  -8--8-8--8-8-8--6--6-6--6-6-6--6--6-6--6-6-6--4--4-4--4-4-4--8--8-8--8-8-8-|
  -6--6-6--6-6-6--4--4-4--4-4-4--4--4-4--4-4-4--2--2-2--2-2-2--6--6-6--6-6-6-|

  ---------------------------------------------------------------------------|
  ---------------------------------------------------------------------------|
  -6--6-6--6-6-6--8--8-8--8-8-8----------------------------------------------|
  -6--6-6--6-6-6--8--8-8--8-8-8--4--4-4--4-4-4--8--8-8--8-8-8--6--6-6--6-6-6-|
  -4--4-4--4-4-4--6--6-6--6-6-6--4--4-4--4-4-4--8--8-8--8-8-8--6--6-6--6-6-6-|
  -------------------------------2--2-2--2-2-2--6--6-6--6-6-6--4--4-4--4-4-4-|

  ---------------|
  ---------------|
  ---------------|
  -6--6-6--6-6-6-|
  -6--6-6--6-6-6-|
  -4--4-4--4-4-4-|

[Bridge] - [01:41] - [01:56]
- ---------------------------------------------------------------------------|
- ---------------------------------------------------------------------------|
- ---------------------------------------------------------------------------|
- -4--4-4--4-4-4--8--8-8--8-8-8--6--6-6--6-6-6--6--6-6--6-6-6--4--4-4--4-4-4-|
- -4--4-4--4-4-4--8--8-8--8-8-8--6--6-6--6-6-6--6--6-6--6-6-6--4--4-4--4-4-4-|
- -2--2-2--2-2-2--6--6-6--6-6-6--4--4-4--4-4-4--4--4-4--4-4-4--2--2-2--2-2-2-|

  ---------------------------------------------------------------------------|
  ---------------------------------------------------------------------------|
  ---------------------------------------------------------------------------|
  -8--8-8--8-8-8--6--6-6--6-6-6--6--6-6--6-6-6--4--4-4--4-4-4--8--8-8--8-8-8-|
  -8--8-8--8-8-8--6--6-6--6-6-6--6--6-6--6-6-6--4--4-4--4-4-4--8--8-8--8-8-8-|
  -6--6-6--6-6-6--4--4-4--4-4-4--4--4-4--4-4-4--2--2-2--2-2-2--6--6-6--6-6-6-|

  ------------------------------|
  ------------------------------|
  ------------------------------|
  -6--6-6--6-6-6--6--6-6--6-6-6-|
  -6--6-6--6-6-6--6--6-6--6-6-6-|
  -4--4-4--4-4-4--4--4-4--4-4-4-|

[Piano] - [01:56] - [2:20]

[Chorus 3] - [02:20] - [02:39]
- ---------------------------------------------------------------------------|
- ---------------------------------------------------------------------------|
- -------------------------------6--6-6--6-6-6--8--8-8--8-8-8----------------|
- -4--4-4--4-4-4--8--8-8--8-8-8--6--6-6--6-6-6--8--8-8--8-8-8--4--4-4--4-4-4-|
- -4--4-4--4-4-4--8--8-8--8-8-8--4--4-4--4-4-4--6--6-6--6-6-6--4--4-4--4-4-4-|
- -2--2-2--2-2-2--6--6-6--6-6-6--------------------------------2--2-2--2-2-2-|

  ---------------------------------------------------------------------------|
  ---------------------------------------------------------------------------|
  ---------------------------------------------------------------------------|
  -8--8-8--8-8-8--6--6-6--6-6-6--6--6-6--6-6-6--4--4-4--4-4-4--8--8-8--8-8-8-|
  -8--8-8--8-8-8--6--6-6--6-6-6--6--6-6--6-6-6--4--4-4--4-4-4--8--8-8--8-8-8-|
  -6--6-6--6-6-6--4--4-4--4-4-4--4--4-4--4-4-4--2--2-2--2-2-2--6--6-6--6-6-6-|

  ---------------------------------------------------------------------------|
  ---------------------------------------------------------------------------|
  -6--6-6--6-6-6--8--8-8--8-8-8----------------------------------------------|
  -6--6-6--6-6-6--8--8-8--8-8-8--4--4-4--4-4-4--8--8-8--8-8-8--6--6-6--6-6-6-|
  -4--4-4--4-4-4--6--6-6--6-6-6--4--4-4--4-4-4--8--8-8--8-8-8--6--6-6--6-6-6-|
  -------------------------------2--2-2--2-2-2--6--6-6--6-6-6--4--4-4--4-4-4-|

  ---------------|
  ---------------|
  ---------------|
  -6--6-6--6-6-6-|
  -6--6-6--6-6-6-|
  -4--4-4--4-4-4-|

[Piano] - [02:39] - [03:11]


[Symbols]

b [Bend]
+ [Tremolo Pick]
x [Mute String]
~ [Let Ring]

ĂŽnscrie-te la newsletter


Like us on Facebook