Pieces Dont Fit Anymore (ver2) Tab - James Morrison






The Pieces Dont Fit Anymore
James Morrison
Undiscovered
Tabbed by K. Diddy
Questions, Comments, Concerns: stickadeez@yahoo.com

Standard Tuning
Capo 1st fret
This is a great song, but tabbed slightly incorrectly as Ive seen in.  What we have
the song is a chord progression that should be finger-picked (although strumming the chorus
fantastic).  A basic pattern starting the chord on the root note and picking the notes 
exists here.  Check out this simple solution below

Verse (repeated throughout):
  C                                       Am
E----------------------------------------------------------------------------------|
B-----------1-----------------1--------------------1----------------1--------------|
G--------0-----0-----------0-----0--------------2-----2----------2-----2-----------|
D-----2-----------2-----2-----------2--------2-----------2----2-----------2--------|x2
A--3-----------------3-----------------3--0----------------0----------------0------|
E----------------------------------------------------------------------------------|

  F                                        C
E----------------------------------------------------------------------------------|
B-----------1-----------------1---------------------1-----------------1------------|
G--------2-----2-----------2-----2---------------0-----0-----------0-----0---------|
D-----3-----------3-----3-----------3---------2-----------2-----2-----------2------|
A--3-----------------3-----------------3---3-----------------3-----------------3---|
E----------------------------------------------------------------------------------|

  Am                 F                     C
E-----------------------------------------------------------------------------------|
B-----------1-----------------1---------------------1-----------------1-------------|
G--------2-----2-----------2-----2---------------0-----0-----------0-----0----------|
D-----2-----------2-----3-----------3---------2-----------2-----2-----------2-------|
A--0-----------------3-----------------3---3-----------------3----------------------|
E-----------------------------------------------------------------------------------|

Now for the chorus, I highly suggest a subtle strumming pattern of the following:

Chorus:
F                             Dm                  Am             Cmaj7
Well I cant explain why its not enough, cause I gave it all to you
            F                    Dm                     Am              Cmaj7
And if you leave me now, oh just leave me now, its the better thing to do
    F                           Dm                          Am
Its time to surrender, its been too long pretending, theres no use in trying
         Cmaj7            F         Dm                    C
When the pieces dont fit anymore, pieces dont fit here anymore


And the Bridge is as follows:

Bridge:

G           E             Am
Oh dont misunderstand how I feel
           D
Cause Ive tried, yes Ive tried
F                                E
But still I dont know why, no I dont know why

I dont know whywhy

Now go out and impress everyone with how emotionally available you are with this song!
playing everyone!






Like us on Facebook