This Boy Intro Tab - James Morrison






-------------------------------------------------------------------------------
     SONG NAME - Band Name
-------------------------------------------------------------------------------
Tabbed by: Robert Dunham
Email: unregistered@hotmail.com

Tuning: standard. capo on third fret.

    Em               C             G

e|-----0--------0-------3--------0--|
B|-----0--------1-------3--------2--|
G|-----0------0-0-------0-----2-2---|    4X
D|---2-2-----2--2-----0-0----2--2---|
A|--2--2----3---3----2--2---0---0---|
E|-0---0------------3---3-----------|

ĂŽnscrie-te la newsletter


Like us on Facebook