Wonderful World Chords - James Morrison






Amazing song, thought i'd give it a go, sounds right, but i dunno.
someone figure out the bridge please and correct me if i'm wrong.
(standard tuning)


 Cm                                 G
e-8---------------------------------3------------------|
b-8---------------------------------3------------------|
g-8---------------------------------4------------------|
D-10--------------------------------5------------------|
A-10--------------------------------5------------------|
E-8---------------------------------3------------------|
     I've been down so low people look at me and they know,

         F#                C#
----------2-----------------9------------------------|
----------2-----------------9------------------------|
----------5-----------------10-----------------------|
----------4-----------------11-----------------------|
----------4-----------------11-----------------------|
----------2-----------------9------------------------|
they can tell something is wrong

         F#                C#
----------2-----------------9--------------------------|
----------2-----------------9--------------------------|
----------5-----------------10-------------------------|
----------4-----------------11-------------------------|
----------4-----------------11-------------------------|
----------2-----------------9--------------------------|
     like I         dont belong

    Cm                                      G
well, staring through a window standing outside there just to happy to care

        F#             C#         F#            C#
tonight, wana be like them but I'll mess it up again,


G# (466544)(begin struming quietly and get louder)

I tripped them out when God kicked outside everybody's soul.

Chorus:

       F#                         C#
And I know that it's a wonderful world
                    G#
But i cant feel it right now,
        F#                       C#                      G#
Well I thought that I was doing well but I just want to cry now,
        F#                        C#            Bbm  
        C#
Well I know that its a wonderful world from the sky down to the sea,
           F#                  C#     G#       C#
but I can only see when you're here, here with me.

Note
*Bbm - 688666 (i think)






Like us on Facebook