Do You Wish It Was Me Intro (ver2) Tab - Jason Aldean




E-----------------------------------|------------------------------------|
B------------------------------0----|------------------------------------|
G----0--0-----2/4---4----0-----0----|----0--0---2/4---4--0---------------|
D----0--0-----0-----0----0-----0----|----0--0---0-----0--0------2--------|
A-----------------------------------|---------------------------3--------|
E-----------------------------------|------------------------------------|

E-----------------------------------|------------------------------------|
B-----------------------------------|------------------------------------|
G----0--0-----2/4---4----0----0h2---|----0--0---2/4---4--0---------------|
D----0--0-----0-----0----0----0-----|----0--0---0-----0--0---------------|
A-----------------------------------|---------------------------2--------|
E-----------------------------------|---------------------------3--------|

ĂŽnscrie-te la newsletter


Join the ranks ! LIKE us on Facebook