Grown Woman Tab - Jason Aldean




Jason Aldean
"Relentless""
If you have any corrections email me at garretsuttle8@yahoo.com


capo 1st fret

Chords F, Am,B

Intro:   The pattern is very easy to figure out
   F    Am    A#             F    Am    A#
e--1----------1--------------1----------1--------|
b--1----1-----3--------------1----1-----3--------|
g--2----2-----3--------------2----2-----3--------|
d--3----2-----3---------3----3----2-----3--------|
a--3----------1----1h3-------3----------1--------|
E--1----------1--------------1----------1--------|  


Verse: F Am A#

Chorus: A# F A# F Am A# F Am A#

Verse: F Am A#

Chorus: A# F A# F Am A# F Am A#

Interlude: A# F A# 

Verse: F Am A#

Outro:

   F    Am    A#             F    Am    A#
e--1----------1--------------1----------1--------|
b--1----1-----3--------------1----1-----3--------|
g--2----2-----3--------------2----2-----3--------|
d--3----2-----3---------3----3----2-----3--------|
a--3----------1----1h3-------3----------1--------|
E--1----------1--------------1----------1--------| 

ĂŽnscrie-te la newsletter


Join the ranks ! LIKE us on Facebook