Hick Town (ver2) Tab - Jason Aldean




This is my very first tab, and I do not really know
all the symbols
This song appears to be tuned to a lower key. 
Dont know which key but E is played open a lot so tune to that...

Intro
E|-----------------------------------------------------|
B|-----------------------------------------------------|
G|-------02-------------------------02-----------------|
D|2-2-02----02-2-2-02-5---7--2-2-02----02-2-2-02-5---7-|
A|2-2----------2-2----5---7--2-2----------2-2----5---7-|
E|0-0----------0-0----3---5--0-0----------0-0----3---5-|


   muffled down strokes
E|-----------------------------------------------------|
B|-----------------------------------------------------|
G|----------------------------------02-----------------|
D|2-2-----------------5---7--2-2-02----02-2-2-02-5---7-|
A|2-2-----------------5---7--2-2----------2-2----5---7-|
E|0-0-----------------3---5--0-0----------0-0----3---5-|
  Little Jimmy...     Bronco


                     +--pulloff E & slide-+
                     v   (do not strike)  v
E|--d--------------------d----------------------|
B|--u--------------------u----------------------|
G|--d--------------------d----------------------|
D|2-2---5---7--7777777-2-2---5---7--7777777-2---|
A|2-2---5---7--7777777-2-2---5---7--7777777-2---|
E|0-0-0-3-0-5--5555550-0-0-0-3-0-5--5555550-0---|

                     
                              bend
E|--d--------------------d--------|
B|--u--------------------u--------|
G|--d--------------------d--------|
D|2-2---5---7--777777-9-8-7-------|
A|2-2---5---7--777777-9-8-7-------|
E|0-0-0-3-0-5--555555-7-6-5-0-3---|
ĂŽnscrie-te la newsletter


Join the ranks ! LIKE us on Facebook