Why Tab - Jason Aldean




-------------------------------------------------------------------------------
     WHY - Jason Aldean
-------------------------------------------------------------------------------


Tabbed by: zach butts
Email: zachbutts99@yahoo.com

Tuning: EADGBE (capo on the 2nd fret)

INTRO :

e|-----------------------------------------------------3----------------------|
B|-----------------------------------------------------0----------------------|
G|---2h4--2--4h5p4---2h4--2--4h5p4p0---2h4--2--4h5p4---0----------------------|
D|-----------------------------------------------------0----------------------|
A|-----------------------------------------------------2----------------------|
E|-----------------------------------------------------3----------------------|

VERSE 1:

        G
It's 3 AM and I finally say
     Em
I'm sorry for acting that way
                  G
I didn't really mean to make you cry
   Em
Oh baby, sometimes I wonder why


CHORUS :

            G
Does it always have to come down
         D
To you leaving
                    Am        C
Before I'll say 'I love you'
          G
Why do I always use the words
                  D
That cut the deepest
                          Am
When I know how much it hurts you
   G    C                     G
Oh baby why, do I do that to you


BRIDGE:

e|---------------------------------------------------------------------------|
B|---------------------------------------------------------------------------|
G|---2h4--2--4h5p4---2h4--2--4h5p4-------------------------------------------|
D|---------------------------------------------------------------------------|
A|---------------------------------------------------------------------------|
E|---------------------------------------------------------------------------|

 VERSE 2:

            G
I know I'd never let you walk away
    Em
So why do I push you 'til you break
                 G
And why are you always on the verge of good-bye
           Em
Before I'll show you how I really feel inside


 CHORUS:

         G
Does it always have to come down
            D
To you leaving
                     Am       C
Before I'll say 'I love you'
          G
Why do I always use the words
                D
That cut the deepest
                          Am
When I know how much it hurts you
    G    C                    G
Oh baby why, do I do that to you

 SOLO:

e|---------------------------------------------------------------------------|
B|---------------------------------------------------------------------------|
G|----------9h11p9--------14-13-13h14--14-13-13h14---------------------------|
D|---11~11----------11~9---------------------------14p12p11

ĂŽnscrie-te la newsletter


Join the ranks ! LIKE us on Facebook