Are You Gonna Be My Girl Bass Tab - Jet






Artist - Jet
Song - Are you Gonna be my Girl


Standard Tuning (EADG)


Intro:
G/---------------------
D/---------------------
A/-------------------3-
E/-5-5-5--5-5-0--3-5---

G/---------------------
D/---------------------
A/---------------------
E/-5-5-5--5-5-0--3-0-3-

G/---------------------
D/---------------------
A/-------------------3-
E/-5-5-5--5-5-0--3-5---

G/-------------------
D/-------------------
A/---3-5--5-3--------
E/-5----------5--5-3-

Verse:

G/------------------------
D/------------------------
A/-------------------3----
E/-5-5-5--5-5-0--3-5----5-


Chorus:

G/---------------------------------------------------------------------------
D/---------------------------------------------------------------------------
A/--------------------3-3-3--3-3-3-3-3-3--5-5-5--5-5-5-5-5-5-----------------
E/-5-5-5--5-5-5-5-5-5----------------------------------------5-5-5--5-5-5-5-5

G/--------------
D/----------5-5-
A/-5--5--5------
E/--------------

ĂŽnscrie-te la newsletter


Like us on Facebook