Are You Gonna Be My Girl Chords - Jet






Are You Gonna Be My Girl
Jet
tabbed by Ryan

This is all pretty rough, but its a good starting point...


Little riff in intro - or at least a riff that sounds vaguely like it :)  

e-------------------------
B-------------------------
G------5-7^-7-5-----------
D----7-5-7^-7-5-7---------
A----7----------7---------
E------------------------- then start banging out an A barre chord....

N.C.
I said 1 2 3, tell ya had to come with me
    A
coz ya look so fine and i really wanna make ya mine
N.C.A
I said ya look so fine and I really wanna make ya mine
N.C.
I said 4 5 6, cmon and get your kicks
                          A
now ya dont need money when ya look like that do ya honey?
 (intro riff)


BRIDGE:
  D    D    D       
---------------------------
--7----7----7-------5---8--
--7----7----7-------5---7--
--7----7----7-------5---5--
--5----5----5-------5---5--
---------------------------
Big black boots
Long brown hair
She so sweet with her 
get back stare

CHORUS:

A
Well I could see
C
You home with me
D  A
But you were with another man yeah
A  C
I know we aint got much to say
D   A
Before I let you get away
 D D D    F* F*

I said are you gonna be my girl?

(Play F* as X 8 10 10 10 8)

And that all there is to it.. ya have all the parts, its just a case of repeating
it over again and then jammin in A.

ĂŽnscrie-te la newsletter


Like us on Facebook