Rip It Up Tab - Jet






Artist: Jet 
Song: Rip It up
Tabbed By: Anthony Stone

Intro:
e|-0000-----------------------|
B|-2222-----------------------|
G|-2222-6-6-6-6---------------|
D|-2222-4-4-4-4---------------|
A|-0000-----------------------|
E|----------------------------|

Verse 1:
e|-------------------------|
B|-------------------------|
G|--6--4/6--6--4/6---------|
D|--4--2/4--4--2/4---------|
A|-------------------------|
E|-------------------------|

Verse 2:
e|--------------------------------------------|
B|--------------------------------------------|
G|-6-9-11--6-9-11--6-9-11--11--9--11-11-9-6---|
D|-4-7--9--4-7--9--4-7--9---9--7---9--9-7-4---|
A|--------------------------------------------|
E|--------------------------------------------|

Chorus:
   F#          A
Get on your feet boys
   Em                 B
Rip it up, rip it up if your ever gonna make it!
   F#         A
Get on your feet girls
   Em                 B
Rip it up, rip it up if your ever gonna make it!

Bridge:                                       
e|------------------------------------------|-0-|
B|------------------------------------------|-2-|
G|------------------------------------------|-2-|
D|----------------------------------------2-|-2-|< On Last
A|--777-5-3-------------777-5-3-------------|-0-|
E|----------5-3-0-33-0----------5-3-0-3-0---|---|

ĂŽnscrie-te la newsletter


Like us on Facebook