Shes A Genius Intro Tab - Jet






E|-------------------------|
B|-------------------------|
G|-------------------------|
D|2-2-----2-0-2--2---------|       -----------------------Bassline 2x
A|-----------------0---0-2-|
E|----0-0------------3-----|

E|-------------------------|
B|-------------------------|
G|4-4-----4-2-4--4---------|
D|2-2-----2-0-2--2-2---2-4-|       -----------------------Guitar 2x
A|----2-2----------0-5-0-2-|
E|----0-0------------3-----|


First Tab, so be nice, ive only been playing a year and a half :P

ĂŽnscrie-te la newsletter


Like us on Facebook