Just Tonight Bass Tab - Jimmy Eat World




-------------------------------------------------------------------------------
     Just Tonight... - Jimmy Eat world
-------------------------------------------------------------------------------

Tabbed By : Colin Irving and Hamish Reilly
e-mail: colin383@hotmail.com and mutatedhamster@hotmail.com

Tuning:Db,Ab,Db,Gb

Intro/Chorus/Interlude/Solo (guitar)

G|-----------------------------------------------------------------|
D|-----------------------------------------------------------------|
A|-----------------------------------------------------------------|
E|-3-3-3-3-3-3-3-3-0-0-0-0-0-0-0-0-7-7-7-7-7-7-7-7-3-3-3-3-3-3-3-3-|

G|-----------------------------------------------------------------|
D|-----------------------------------------------------------------|
A|-----------------------------------------------------------------|
E|-3-3-3-3-3-3-3-3-0-0-0-0-0-0-5-5-7-7-7-7-7-7-7-7-7-7-7-7-7-7-7-7-|

Verse

G|------------------------------------------------------------|       |-------| Play at the end  
D|------------------------------------------------------------|       |-------| of the second
A|------------------------------------------------------------| x3    |-------| bar of the verse.
E|-3-3-3-3--3-3-3--3-3-3--3-3-3--0-0-0-0--0-0-0--0-0-0--0-0-0-|       |-5-5-5-|

G|-------------------------------------------------------------------|
D|-------------------------------------------------------------------|
A|-------------------------------------------------------------------|
E|-3-3-3-3--3-3-3--3-3-3--3-3-3-2-2--2-2-2-2-2-2-2-2-2-2-2-2-2-2-2-2-|

Order:
Intro
Verse
Chorus
Verse
Interlude
Solo
Chorus
Chorus
ĂŽnscrie-te la newsletter


Join the ranks ! LIKE us on Facebook