Pain (ver3) Bass Tab - Jimmy Eat World






Jimmy Eat World - Pain
Tabbed By Elias Allanby (lpaustralia@hotmail.com or blinkme_elias2002@yahoo.com.au)
www.thenumlocks.com

VERSE       1st time  2nd time
G|------------------------------------------------------------|---------|---------|
D|------------------------------------------------------------|---------|---------|
A|-3-3-3-3-3-3-3-3--------------------------------------------|---------|---------|
D|-----------------3-3-3-3-3-3-3-3-1-1-1-1-1-1-1-1-1-1-1-1-1--|--0-0-0--|--5-5-5--|


ChorusX2
G|------------------------------------------------------------------------|
D|------------------------------------------------------------------------|
A|-3-3-3-3-3-3-3-3-3-3-3-3-3-3-3-3----------------------------------------|
D|---------------------------------3-3-3-3-3-3-3-3-3-3-3-3-3-3-3-3-1-1-1-1|

G|------------------------------------------------------------------------|
D|------------------------------------------------------------------------|
A|------------------------------------------------------------------------|
D|-1-1-1-1-1-1-1-1-1-1-1-1-1-5-5-5-5-5-5-5-5-5-5-5-5-5-5-5-5--------------|


Verse       1st time  2nd time
G|------------------------------------------------------------|---------|---------|
D|------------------------------------------------------------|---------|---------|
A|-3-3-3-3-3-3-3-3--------------------------------------------|---------|---------|
D|-----------------3-3-3-3-3-3-3-3-1-1-1-1-1-1-1-1-1-1-1-1-1--|--0-0-0--|--5-5-5--|


Chorus 


PRE-SOLO
G|------------------------------------------------------------------------|
D|------------------------------------------------------------------------|
A|------------------------------------------------------------------------| x 2
D|-6-6-6-6-6-6-6-6-6-6-6-6-6-6-6-6--3-3-3-3-3-3-3-3-3-3-3-3-3-3-3-3-------|


Solo
G|------------------------------------------------------------------------|
D|------------------------------------------------------------------------|
A|-3-3-3-3-3-3-3-3-3-------------------------------------------------3-3-3|
D|-------------------5-5-5-5-5-5-5-5-6-6-6-6-6-6-6-6-3-3-3-3-3-3-3-3------|

G|------------------------------------------------------------------------|
D|------------------------------------------------------------------------|
A|-3-3-3-3-3-----------------------------------------3-3-3-3-3-3-3-3------|
D|-----------5-5-5-5-5-5-5-5-6-6-6-6-6-6-6-6-8-8-8-8-----------------5-5-5|

G|------------------------------------------------------------------------|
D|------------------------------------------------------------------------|
A|------------------------------------------------------------------------|
D|-5-5-5-5-5-6-6-6-6-6-6-6-6-6-6-6-6-6-6-6-6-3-3-3-3-3-3-3-3-3-3-3-3-3-3-3|


ENDING CHORUS
G|------------------------------------------------------------------------|
D|------------------------------------------------------------------------|
A|-3-3-3-3-3-3-3-3-3-------------------------------------------------3-3-3|
D|-------------------5-5-5-5-5-5-5-5-6-6-6-6-6-6-6-6-3-3-3-3-3-3-3-3------|


G|------------------------------------------------------------------------|
D|------------------------------------------------------------------------|
A|-3-3-3-3-3-------------------------------------8--8--3-3-3-3-3-3-3-3----|
D|-----------5-5-5-5-5-5-5-5-6-6-6-6-6-6-6-6-8-8-----------------------5-5|


G|------------------------------------------------------------------------|
D|------------------------------------------------------------------------|
A|---------------------------------------------3-3-3-3-3-3-3-3------------|
D|-5-5-5-5-5-5-6-6-6-6-6-6-6-6-3-3-3-3-3-3-3-3-----------------5-5-5-5-5-5|


G|------------------------------------------------------------------------|
D|------------------------------------------------------------------------|
A|---------------------------------------------------------------------3~-|
D|-5-5-6-6-6-6-6-6-6-6-6-6-6-6-6-6-6-6-3-3-3-3-3-3-3-3-3-3-3-3-3-3-3-3----|


www.thenumlocks.com






Like us on Facebook