Polaris (ver4) Tab - Jimmy Eat World






Jimmy Eat World - Polaris

This tab was created with much help from Cherry Lane!!!!! My favorite song from the CD - very unique.


Tuning: Guitar 1 - Drop D 1/2 step down Capo II
        Guitar 2 - Open E tuning down 1/2 step Capo IV
        Guitar 3 and 4 - Standard tuning 1/2 step down

Guitar 1 - Acoustic
Guitar 2 - Electric
Guitar 3 and 4 - Electric


INTRO
Part 1
Guitar 1
eb|------------------|
Bb|------------------|
Gb|------------------|
Db|------------------|
Ab|0-(40x)-----------|
Db|9-----------------|

Guitar 2
eb|--0--0-----0--0----------------------|
Bb|--------------------3--3-----3--3----|
G |-1--1--1--1--1--1--1--1--1--1--1--1--|
Eb|3--3--3--3--3--3--3--3--3--3--3--3---|
Bb|-------------------------------------|
Eb|-------------------------------------|

INTRO
Part 2
Guitar 2
eb|--0--0-----0--0--------------------------------------3---1---0----------|
Bb|-------------------3--3-----3--3-----1--1-----1--1------1---1---1-3--1--|
G |-1--1--1--1--1--1-1--1--1--1--1--1--1--1--1--1--1--1--1--1---1-----1--1-|
Eb|3--3--3--3--3--3-3--3--3--3--3--3--3--3--3--3--3--3--3-----------3--3---|
Bb|------------------------------------------------------------------------|
Eb|------------------------------------------------------------------------|

Guitar 1
eb|------------------------------------------------------------------------|
Bb|------------------------------------------------------------------------|
Gb|------------------------------------------------------------------------|
Db|------------------------------------------------------------------------|
Ab|--(16x)---------(16x)-------------(16x)----------(16x)------------------|
Db|9--------------7-----------------5--------------0-----------------------|

INTRO
Part 3
Guitar 2 plays INTRO - Part 2
Guitar 1 - distortion and delay
eb|---------------------------------------------------------|
Bb|12------------12--------------10------------9------------|
G |---13-------------11--------------9-------------9--------|
Eb|------------------------9--------------7--------------6--|
Bb|-------11------------------------------------------------|
Eb|---------------------------------------------------------|

VERSE
Part 1
Guitar 2 - Plays INTRO - Part 2 one time

VERSE
Part 2
Guitar 1 - plays INTRO - Part 3 riff
Guitar 2 - continues to play INTRO - Part 2 riff

**at 1:21, Guitar 3 comes in with the following
eb|-0-----------------------------------------------|
Bb|-0-----------------------------------------------|
Gb|-9-----------------------------------------------|
Db|-9--(9x)-----------------------------------------|
Ab|-7-----------------------------------------------|
Eb|-------------------------------------------------|

CHORUS
Both Guitars - 2x
Guitar 3
eb|----------------------------------------------------------------------|
Bb|----------------------------------------------------------------------|
Gb|----------------------------------------------------------------------|
Db|9---------------7-----------------5-----------------------------------|
Ab|9-(8x)----------7-(8x)------------5-(16x)-----------------------------|
Eb|9---------------7-----------------5-----------------------------------|

Guitar 4
eb|----1212----1212----1212-1414-1212----1212----1212-----1212-1414-1212-|
Bb|1212----1212----1212--------------1212----1212----1212----------------|
Gb|----------------------------------------------------------------------|
Db|----------------------------------------------------------------------|
Ab|----------------------------------------------------------------------|
Eb|----------------------------------------------------------------------|

VERSE
CHORUS

BRIDGE
Guitar 3
eb|----------------------------------------------------------------|
Bb|----------------------------------------------------------------|
Gb|----------------------------------------------------------------|
Db|4-----7-----11----9-----4-----7-----11-------18------------18






Like us on Facebook