Polaris Tab - Jimmy Eat World






-----------------------------------------------------------------------------------------------
                                   Jimmy Eat World _ Polaris
-----------------------------------------------------------------------------------------------
 Tabbed By Nick  (Ncnick869@aol.com)


okay here it is, it sounds right to me....


Intro/Verse

e|------------------------------------------|
B|------------------------------------------|
G|------------------------------------------|
D|------------------------------------------|
A|-3-3-3-3-3-3-3-3--------------------------|
E|------------------------------------------|

e|-----3------3------------3------3---------|
B|------------------------------------------|
G|-3-5----3-5-----3-5--3-5----3-5----3-5----|
D|------------------------------------------|
A|------------------------------------------|
E|------------------------------------------|

e|-----1------1-----------1------1----------|
B|------------------------------------------|
G|-3-5----3-5----3-5--3-5----3-5----3-5-----|
D|------------------------------------------|
A|------------------------------------------|
E|------------------------------------------|

e|------------------------------------------|
B|-----4------4-----------4-----4-----------|
G|-3-5----3-5----3-5--3-5----3-5----3-5-----|
D|------------------------------------------|
A|------------------------------------------|
E|------------------------------------------|


e|-----5------3------1-----------------------------|
B|------------------------4------2-----------------|
G|-3-5----3-5----3-5---3-5----3-5-----------   






Like us on Facebook