Shame Tab - Jimmy Eat World






-------------------------------------------------------------------------------
     Shame - Jimmy Eat World
-------------------------------------------------------------------------------
Tabbed by: Chris9898

Tuning: Drop D

Verse 
e|---------------------------------------------------|
B|---------------------------------------------------|
G|----------------6-6-6-6-6-6-6-6-3-3-3-3-3-3-3-3----|
D|3-3-3-3-3-3-3-3-6-6-6-6-6-6-6-6-3-3-3-3-3-3-3-3----|
A|3-3-3-3-3-3-3-3-3-3-3-3-3-3-3-3-1-1-1-1-1-1-1-1----|
D|3-3-3-3-3-3-3-3------------------------------------|

Chorus
e|--------------------------------------|
B|--------------------------------------|
G|3------------------------------6------|
D|3-(x16)-0-------5-------3------6-(x8)-|
A|1-------0-(x16)-5-(x16)-3-(x8)-3------|
D|--------0-------5-------3-------------|

Bridge
e|-----------------------------|
B|-----------------------------|
G|3-------------2------3-------|
D|3-(x3)-0------2-(x3)-3-(x4)--|
A|1------0-(x4)-0------1-------|
D|-------0---------------------|

Solo
e|------------------------|
B|------------------------|
G|--10-11---11-10---10----| (Repeat alot of times)
D|9-------9-------9-------|
A|------------------------|
D|------------------------|


| /  slide up
|   slide down
| h  hammer-on
| p  pull-off
| ~  vibrato
| +  harmonic
| x  Mute note
===============================================================================






Like us on Facebook