The Authority Song (ver2) Tab - Jimmy Eat World






26.1.02
Tabbed by Munkee
REAL EASY!!
The Authority Song - Jimmy Eat World

jackass_boy@hotmail.com

Drop D Tuning

Intro and Verse

e-------------------------------
B-------------------------------
G-----7-7-----------------------
D--0--7-7---7-7-7--9-9-9--7-7-7-
A--0--5-5---7-7-7--9-9-9--7-7-7-
D--0--------7-7-7--9-9-9--7-7-7-

Repeat this lots of times

e----------------------------------------------
B----------------------------------------------
G------------------------7-7-7-7-7-------------
D--5-5-5-5-5--7-7-7-7-7--7-7-7-7-7--9-9-9-9-9--
A--5-5-5-5-5--7-7-7-7-7--5-5-5-5-5--9-9-9-9-9--
D--5-5-5-5-5--7-7-7-7-7-------------9-9-9-9-9--

Bridge (when vocals go temporarily)
e----------------------------------------------
B----------------------------------------------
G----------------------------------------------
D--9-9-9-9-9--5-5-5-5-5--9-9-9-9-9--5-5-5-5-5--
A--9-9-9-9-9--5-5-5-5-5--9-9-9-9-9--5-5-5-5-5--
D--9-9-9-9-9--5-5-5-5-5--9-9-9-9-9--5-5-5-5-5--

e------------------------------
B------------------------------
G------------------------------     repeat 3 times
D--7-7-7-7-7--9-9-9-9--5-5-5-5-
A--7-7-7-7-7--9-9-9-9--5-5-5-5-
D--7-7-7-7-7--9-9-9-9--5-5-5-5-

e--------------------------
B--------------------------
G--------------------------
D--5-5-5-5-5-5-5-5-5-5-5-5-
A--5-5-5-5-5-5-5-5-5-5-5-5-
D--5-5-5-5-5-5-5-5-5-5-5-5-

e-------------------------------------------------------
B-------------------------------------------------------
G-----7-7---------------------------7-7-----------------
D--0--7-7---7-7-7--9-9-9--7-7-7--0--7-7--7-7-7-9-9-9--6-
A--0--5-5---7-7-7--9-9-9--7-7-7--0--5-5--7-7-7-9-9-9--6-
D--0--------7-7-7--9-9-9--7-7-7--0-------7-7-7-9-9-9--6-

Then back to verse



End:

e-----------
B-----------
G-----------
D--9-9-9--7-
A--9-9-9--7-
D--9-9-9--7-


Its how the hustle goes, see what the jukebox knows.
Put my last quarter on, I play "Authority Song". 

Honesty or mystery?
Tell me Im not scared anymore. aahhahhahh
I got no secret purpose, I dont seem obvious do I?
I dont seem obvious do I? Do I aiaiai

The DJ never has it, J A M C Automatic. aaahhhaii
If those were Roy's headphones, you bet he'd play "What Goes On". 
aaahhhaii

Honesty or mystery? aahhaiahhai

Tell me Im not scared anymore.
I got no secret purpose, I dont seem obvious do I?
I dont seem obvious do I? Do I aiaiai. I dont seem obvious do I? Do I aiaiai. 

(The Bridge)
Do I?
Oh I'm here, that means something doesn't it?
Oh wont you dance with me a little bit?
Oh you dont notice, I guess the musics too loud.


Its how the hustle goes, see what the jukebox knows.
Put my last quarter on, I play "Authority Song".

Honesty or mystery?
Tell me Im not scared anymore.
Say anything you want already Im not scared anymore.
Honesty or mystery?
Want something else?
Just tell me Im not scared anymore.
I got no secret purpose, I dont seem obvious do I?
I dont seem obvious do I?

(Fill in your own aiaiaiais!!!)

(It should all be right.)






Like us on Facebook