The Authority Song (ver3) Tab - Jimmy Eat World






Song: The Authority Song
Artist: Jimmy Eat World
Album: Bleed American
Tabbed by: Deadmeat (the_xxxxx@hotmail.com)


Right, this tab is mainly chords, you can figure the strumming pattern out
by yourself right? I'm pretty sure I got it right, if not, mail!


The song is in Drop D tuning (D A D G B e)


-------
|Intro|
-------
Riff A
  D5        A5   B5   A5     D5      A5   B5
e|--------------------------------------------------||
B|------33-----------------------33-----------------||
G|------22--2--2-4-444222--------22--2--2-4-4-4-4---||
D|----------2-2-4-444222------------2--2-4-4-4-4---||
A|--0-------0--0-2-222000----0-------0--0-2-2-2-2---||
D|--0------------------------0----------------------||

--------
|Chords|
--------

e|---------------------------------------------------------------------------
B|---------------------------------------------------------------------------
G|----------------------------4---7------------------------------------------
D|---0----3----5----7----9----4---7------------------------------------------
A|---0----3----5----7----9-or-2---5------------------------------------------
D|---0----3----5----7----9---------------------------------------------------
    D5   F#5  G5   A5   B5       d5

------
|Song|
------

>>>Intro: Riff A>Verse: Riff A>Pre-Chorus>Chorus>Verse: Riff A>Pre-Chorus>Chorus>Bridge>Intro: Riff A>Verse: No riff>Pre-Chorus>Chorus>Ending






Like us on Facebook