The Middle (ver2) Bass Tab - Jimmy Eat World






g-00----------------------------------------------------------|
d----000000-444-2-----------------000-------------0-0-0-0-0---|
a----------------4-4-4-4-4-4-4-4-----4-4-4-4-4-4--------------|
e-------------------------------------------------------------|

g-00----------------------------------------------------------|
d----000000-444-2-----------------000-------------0-0-0-0-0---|
a----------------4-4-4-4-4-4-4-4-----4-4-4-4-4-4--------------|
e-------------------------------------------------------------|






Like us on Facebook