The Middle (ver3) Bass Tab - Jimmy Eat World






This is my first tab to write, but I've figured out hundreds of bass parts to hundreds 
songs.  This one has 3 notes that you have to play.


Inttro, Verses, & Chorus(figure out when to play each part)
g/7-7-7-7-7-7-7-7-7-7-7-7-7-7-7-7-------------------------------------------|
d/--------------------------------7-7-7-7-7-7-7-7-7-7-7-7-7-7-7-7-5-5-5-5-5-|
a/--------------------------------------------------------------------------|
e/--------------------------------------------------------------------------|

g/----------------------7-7-7-7-7-7-7-7-7-7-7-7-7-7-7-7-|
d/5-5-5-5-5-5-5-5-5-5-5---------------------------------|
a/------------------------------------------------------|
e/------------------------------------------------------|

Guitar Solo (over and over until the next verse)
g/2-2-2-2-2-2-2-2-2-2-2-2-2-2-2-2-0-0-0-0-0-0-0-0-0-0-0-0-0-0-0-0-|
d/----------------------------------------------------------------|
a/----------------------------------------------------------------|
e/----------------------------------------------------------------|






Like us on Facebook