The Middle (ver5) Tab - Jimmy Eat World






#--------------------------------------------------------------------#
This  file is the author's own work and represents #theirinterpretation  of 
the song. You may only use this file for #private study,scholarship,or research.
---------------------------------------------------------------------
Artist: Jimmy eat World
Title: The middle
Album: Bleed American

This is my first tab,so I'm not sure about the tuning I think its EBGDAD,
it sounds good with standard tuning on my acoustic,i have no idea if this 
is good on an electric,so jus try it...
Intro
---------------------------------------------------------------------
---------------------------------------------------------------------
---------------------------------------------------------------------
---------------------------------------------------------------------
-4(x2)-0(x?)-4(x4)-2(x2)-----0(x?)-----0(x?)-------------------------
------------------------4(x9)-----4(x?)------------------------------

Verse
---------------------------------------------------------------------
---------------------------------------------------------------------
---------------------------------------------------------------------
---------------------------------------------------------------------
---------------------------------------------------------------------
-----0(x?)-----7(x?)---------5(x?)------0(x?)------------------------

then
---------------------------------------------------------------------
---------------------------------------------------------------------
---------------------------------------------------------------------
---------------------------------------------------------------------
--0(x?)-----7(x?)-----5(x?)------0(x?)-------------------------------
--0---------7---------5----------0-----------------------------------

Chorus:

"It just takes    sometime         of the ride
------------------------------------------------
---------------3--------------------------------
---------------2---------------9----------------
---------------0---------------7----------------
---------------0---------------7----------------
---------------0---------------7----------------

    everything will be          will be alright"
-----------------------------------------------
--------------------------------------3---------
-------------------7------------------2---------
-------------------5------------------0---------
-------------------5------------------0---------
-------------------5------------------0---------
After the Chorus is done two times,the solo comes
I'm not sure if the solo is right....

h=hammer-on
p=pull-off
/=slide

Solo
------------------------------------------------------------
-2h3p2-0----------------------------------------------------
---------2h4p2-0--------------------------------------------
-----------------4h5p4-0-------4----------------------------
-------------------------4h5p4---5-4-5-5/7-5-4-5-4-5-4h5-0--
----------------------------------------------------------0-

------------------------------------------------------------
-2h3p2-0----------------------------------------------------
---------2h4p2-0---------------------------Fast-------------
-----------------4h5p4-0-------4----------picking-----------
-------------------------4h5p4---5-4-5-0- 5-7-9-10----------
------------------------------------------------------------

------------------------------------------------------------
------------------------------------------------------------
-------------------------------7-7/9----9/11---11-12-11-12--
-7-5-4-5-4-5--7-5-4-5-4-0-----------------------------------
------------------------------------------------------------
------------------------------------------------------------
 /Fast picking
--10-9-7-5-----------------3-2------------------------------
-------------------------------5-3-2------------------------
-------------------------------------2----------------------
------------------------------------------------------------
------------------------------------------------------------ 
after solo play verse strings,then another chorus,and thats the whole song
 
If anything is wrong,correct this tab on the site on sort of almost the top of this 
page...later






Like us on Facebook