The Middle Solo (ver2) Tab - Jimmy Eat World






This is the solo...I watched them perform it live on the Conan O'Brien show to 
figure out the first part, and some of the rest is played differently on the album, 
i think. Same notes different strings - i think*


------------------------------------------------------------
-2h3p2-0----------------------------------------------------
---------2h4p2-0--------------------------------------------
-----------------4h5p4-0-------4----------------------------
-------------------------4h5p4---5-4-5-5/7-5-4-5-4-5-4h5-0--
----------------------------------------------------------0-

------------------------------------------------------------
-2h3p2-0----------------------------------------------------
---------2h4p2-0---------------------------trem-------------
-----------------4h5p4-0-------4----------picking!----------
-------------------------4h5p4---5-4-5-0-|5-7-9-10|---------
------------------------------------------------------------

------------------------------------------------------------
------------------------------------------------------------
----------------------------7---7-7/9---9-9/11---11-12-11-12
-7-5-4-5-4-5--7-5-4-5-4-0-----0-------0--------0------------
------------------------------------------------------------
------------------------------------------------------------
  trem picking!
--|10--9--7--5|---3-2-0----------    this should be
------------------3-3-3-3-2-0----    pretty correct
---------------------------------    thanks...
---------------------------------
---------------------------------    Email any questions to:
---------------------------------    
                                Logicalimpulse05@hotmail.com






Like us on Facebook