Work Solo (ver2) Tab - Jimmy Eat World






-------------------------------------------------------------------------------
Tabbed by:anguslash
Email:tdpsk8@yahoo.com
this is 100% completley right!
Tuning:normal

e|-11-11-11-11-11--9-8-9-8-----------11-11-11-11-11--13-11-13-11--9-8-9-----|
B|--------------------------9-8-9-11----------------------------------------|
G|--------------------------------------------------------------------------|
D|--------------------------------------------------------------------------|
A|--------------------------------------------------------------------------|
E|--------------------------------------------------------------------------|

e|-16--11---11-11-11-11-11-9-8-9-11~---11-9-8-9-8---------------------------|
B|-------------------------------------------------9-8-9-11--9-11-9-8--9-8--|
G|--------------------------------------------------------------------------|
D|--------------------------------------------------------------------------|
A|--------------------------------------------------------------------------|
E|--------------------------------------------------------------------------|

e|--------------------------------------------------------------------------|
B|--------------------------------------------------------------------------|
G|--10-8~~------------------------------------------------------------------|
D|--------------------------------------------------------------------------|
A|--------------------------------------------------------------------------|
E|--------------------------------------------------------------------------|






Like us on Facebook