Work Solo Tab - Jimmy Eat World






e|-0-0-0-0-0-----------------0-0-0-0-0-2-0-2-0-------5-0---------------|
B|-----------3-2-3-2---------------------------3-2-3-------------------|
G|-------------------2-1-2-4-------------------------------------------|
D|---------------------------------------------------------------------|
A|---------------------------------------------------------------------|
E|---------------------------------------------------------------------|

e|12-12-12-12-12-10-9-10-12-12-12-12-12-10-9-10-9----------------------|
B|------------------------------------------------10-9-10-12-10--------|
G|---------------------------------------------------------------------|
D|---------------------------------------------------------------------|
A|---------------------------------------------------------------------|
E|---------------------------------------------------------------------|

e|---------------------------------------------------------------------|
B|12-10-9-10-9---------------------------------------------------------|
G|-------------11-9----------------------------------------------------|
D|---------------------------------------------------------------------|
A|---------------------------------------------------------------------|
E|---------------------------------------------------------------------|






Like us on Facebook