Your New Aesthetic Intro Tab - Jimmy Eat World






---------------------------------------------------------------------------------------------------------
    Your new aesthetic(intro) - Jimmy Eat World
---------------------------------------------------------------------------------------------------------

By:steveo

intro:

e|----------------------------------------------------------
B|------3-------1------------0-----1------------------------
G|------0-------0------------2-----0------------------------
D|----------------------------------------------------------
A|------3-------3------------0-----3------------------------
E|----------------------------------------------------------

e|----------------0-----------------------------------------
B|-----3-----------------1---------------1--------------0--1
G|-----0-----0-----------0-------------------0----------2--0
D|-----------------------------------2----------2-----------
A|-----3-----------------3------------------------------0--3
E|----------------------------------------------------------






Like us on Facebook