Day In Black (ver2) Tab - JOB FOR A COWBOY






CGCFAD

TAB KEY-
P-PALM MUTE
/-SLIDE
T-TREMELO
*-PULL OFF
H-HAMMER ON
~-VIBRATO

GUITAR 1
[-------------------------------------------------------------]
[-------------------------------------------------------------]
[-------------------------------------------------------------]
[-------------------------------------------------------------]
[-8-7-8-10-8-7-8-7-5-7-5/(3)3--8-7-8-10-8-7-8/(12)/10-7(8)(7)-]
[-------------------------------------------------------------]
                          H                    H        H  P
GUITAR 2
RYTHEM
[-------]X4
[-------]
[-------]
[-0-8-5-]
[-0-8-5-]
[-0-8-5-]

RIFF 1
[-------------------]X4 [--------------------------]
[-------------------]   [--------------------------]
[-------------------]   [--------------------------]
[-------------------]   [-------888888------777777-]
[-------------------]   [-555555------444444-------]
[-000000-0-0-000000-]   [--------------------------]
  TTTTTT     TTTTTT       TTTTTTTTTTTTTTTTTTTTTTTT

NEXT.
RIFF 1 X8

[------------------------------------------------------------------------------------------]
[------------------------------------------------------------------------------------------]
[------------------------------------------------------------------------------------------]
[------------------------------------------------------------------------------------------]
[-55557777888877775-------5555777788881010101088887---55557777888877775--------------------]
[-------------------0-0-0---------------------------0-------------------0-0-88888885555555-]
  TTTTTTTTTTTTTTTTT P P P TTTTTTTTTTTTTTTTTTTTTTTTT P TTTTTTTTTTTTTTTT  P P TTTTTTTTTTTTTT

[-----------------------------------------------------------]X2
[-----------------------------------------------------------]
[-----------------------------------------------------------]
[-----------------------------------------------------------]
[-5-7-8-7-5-------5-7-8-10-8-7-8----5-7-8-7-5---------------]
[-----------0-0-0----------------0------------0-0--8-----5--]
  T T T T   P P P T T T T  T T   P   T T T T  P P  T     T

[--------------------------------]X2
[--------------------------------]
[--------------------------------]
[--7-5---8-7-5-7~--7-5---8-5-7-3-]
[--------------------------------]
[-0----0---------0-----0---------]
  P    P         P     P T T T

[---------------------------------------------------------]X2
[---------------------------------------------------------]
[---------------------------------------------------------]
[---------------------------------------------------------]
[-5--5--5-5(7)/(8)8-8-8-10(8)(7)/(8)8-8-8-8-----777---555-]
[--0--0--0---------0-0-0-------------0-0-0---000---000----]
   P  P  P  H   H  P P P  H   H   H  P P P   PPP   PPP

[-------------------------------------------------------------]
[-------------------------------------------------------------]
[-------------------------------------------------------------]
[-------------------------------------------------------------]
[-5-5-5-5(7)/12-12-12-(13)(12)(10)(12)-12-12-12-----777---555-]
[--0-0-0-------0--0--0----------------0--0--0----000---000----]
   P P P  H    P  P  P H   H   H   H  P  P  P    PPP   PPP

[--------------------------]
[--------------------------]
[--------------------------]
[--------------------10----]
[-0-000-0-000-0-0000-------]
[-0-000-0-000-0-0000-------]
    PPP   PPP   PPPP (PH)HOLD

[---------------------------------------------]X4
[---------------------------------------------]
[---------------------------------------------]
[---------------------------------------8---7-]
[-------------------------------------5---4---]
[-0-0-0-00000-0-0-0-00000-0-0-0-00000---------]
  P P P PPPPP P P P PPPPP P P P PPPPP T T T T
        TTTTT       TTTTT       TTTTT

[-------------------------------------------------------]
[-------------------------------------------------------]
[-------------------------------------------------------]
[-----------------------------------------------------5-]
[-----------------------------------------------------5-]
[-0-000-00-000-0-000-00-000-0-000-00-000-0-000-00-000-3-]
  P PPP PP PPP P PPP PP PPP P PPP PP PPP P PPP PP PPP  HOLD

[----------------------------------------------]X6 LAST TIME PLAY-[---]
[----------------------------------------------]                  [---]
[----------------------------------------------]                  [---]
[----------------------------------------------]                  [-5-]
[-5-8(7)8-/10-12(10)12-/12-13(12)13-/8-10(8)10-]                  [-5-]
[----------------------------------------------]                  [-3-]HOLD
  P * H    P  *  H      P  H  *      P *  H

[-----------------------------------]X
[-----------------------------------]
[-----------------------------------]
[-----------------------------------]
[------5----8-10-7------5----10-8-7-]
[-0000--000-------0000---000--------]
  PPPP  PPP       PPPP   PPP     (I PLAY THE PALM MUTES ON THE OPEN C'S WITH TREMELO)

[-------------------]X8 ON LAST TIME PLAYING HOLD THE LAST NOTE IN VIBRATO
[-------------------]LAST FOR TIMES THE KAST NOTE IS A PINCH HARMONIC
[-------------------]
[-------------------]
[----8-10-7-8-5-7-3-]
[-00----------------]
  PP

[-----------------]X8
[-----------------]
[-----------------]
[-5-------7-------]
[-5-------7-------]
[-3-00000-5-00-00-]
    PPPPP   PP PP

 BASE SOLO

[------------------]X4 AFTER 2ND TIME GUITAR 2 PLAYS THIS [-----------------]
[------------------]                                      [-----------------]
[------------------]                                      [-----------------]
[------------------]                                      [----------8----7-]
[-5~~-4~~~8~~~7~~~-]                                      [-7----8----------]
[------------------]                                      [-----------------]
                                                            T    T   T    T

BOTH GUITARS TRADE BACK WITH THE FOLLOWING TWICE
[-------]
[-------]
[-------]
[-------]
[-------]
[-00000-]SLOWLY TREMELO

THEN A PINCH HARMONIC ON THE G STRING, THIRD FRET.
-
[--------------------]X4 [--------------------------------------------]X2[--------------------]X4
[--------------------]   [--------------------------------------------]  [--------------------]
[--------------------]   [--------------------------------------------]  [--------------------]
[--------------------]   [-------------------------------------8----7-]  [---------------8---7]
[-000-8~~-00-7~00-5~-]   [-000-8888-5-000-7777-4-000-8888-5-----------]  [------------5----4--]
[-000-----00---00----]   [-000--------000--------000--------00---00---]  [-0-0-0-0000---------]
  PPP     PP   PP          PPP TTTT   PPP TTTT   PPP TTTT   PP   PP        P P P PPPP T  TT T
                                                                                 TTTT
[--------------------------------------------------]X2 [---------------------]
[--------------------------------------------------]   [---------------------]
[--------------------------------------------------]   [---------------------]
[--------------------------------------------------]   [---------------------]
[-----------7(8)(7)(8)(7)-----------5(7)(5)(7)(5)--]   [-7--10-5--7--10--12--]
[-0-000-000---------------0-000-000----------------]   [-5--8--3--5--8---10--]REPEAT 
BUT PALM MUTE BETWEEN CHORDS.
  P PPP PPP   H  *  H  *  P PPP PPP   H  *  H  *

[------------------------------------------------------------]X3
[------------------------------------------------------------]
[------------------------------------------------------------]
[----------------------------------------------------5-3-----]
[5-------5-7-8-7-5-3-------5-7-8-7-5-2------2-3----------3-5~]
[--00000-------------00000-------------0000----00000---------]
   PPPPP             PPPPP             PPPP    PPPPP       PAL MUTE NOTES ARE TREMELO

[----]X8
[----]
[----]
[----]
[----]
[-00-]
  PP
GUITAR 2 CARRIES ON FOR A WHILE THEN
JOINS GUITAR 1 AFTER 4X
[-------------------]X8[----------------]X4
[-------------------]  [----------------]
[-------------------]  [----------------]
[-------------------]  [----------------]
[----8-10-7-8-5-7-3-]  [----------------]
[-00----------------]  [-0-0-00-000-000-]
  PP                     P P PP PPP PPP

THEN DO IT AGAIN ONE MORE TIME THEN THE ENDING

[----------]
[----------]
[----------]
[-5~3~-----]
[-----3~5~-]HOLD
[----------]






Like us on Facebook