Day In Black (ver3) Tab - JOB FOR A COWBOY






ARTIST: JOB FOR A COWBOY
SONG NAME: DAY IN BLACK
TABBED BY: CORY
EMAIL: T1RIDER737@YAHOO.COM

       WELL THE ULTIMATE-GUITAR TEAM DIDN'T TAKE MY LAST ATTEMPT AT THIS TAB SO I NEW IT
TO BE WRONG. I WENT TO WORK ON MAKING IT SOUND RIGHT AND I THINK I GOT IT. THIS IS A
EASY SONG TO PLAY, EASY RIFF BUT SOUNDS REALLY GOOD ON A 50+ WATT AMP. THIS IS MORE THAN 
INTRO BUT NOT THE WHOLE SONG AND I HAVEN'T INCLUDED THE PALM MUTES, SLIDES, VIBRATOS
CAUSE YOU SHOULD KNOW WHERE THEY'RE AT. THANKS COMMENT AND RATE PLEASE :)


GUITAR 1 INTRO
--------------------------------------------------------------------------|
--------------------------------------------------------------------------|
--------------------------------------------------------------------------|
--------------------------------------------------------------------------|
-8-7-8-10-8-7-8-7-5-7-5-4----8-7-8-10-8-7-12-10-8-10-8-7------------------|
--------------------------------------------------------------------------|


LET OPEN STRINGS RING WHILE GUITAR 2 DOES CHORUS RIFF PALM MUTING
--------------------------------------------------------------------------|
--------------------------------------------------------------------------|
--------------------------------------------------------------------------|
--------------------------------------------------------------------------|
-8-7-8-10-8-7-8-7-5-7-5-4----8-7-8-10-8-7-12-10-8-10-8-7----------0-------|
------------------------------------------------------------------0-------|

GUITAR 2 INTRO
--------------------------------------------------------------------------|
--------------------------------------------------------------------------|
--------------------------------------------------------------------------|
--------------------------------------------------------------------------|
-0--8--5--3--2---0--8--5--2--3---0--8--5--3--2---0--8--5--2--3------------|
-0--8--5--3--2---0--8--5--2--3---0--8--5--3--2---0--8--5--2--3------------|

GUITAR 2 CHORUS RIFF
--------------------------------------------------------------------------|
--------------------------------------------------------------------------|
--------------------------------------------------------------------------|
--------------------------------------------------------------------------|
--------------------------------------------------------------------------|
-00000000-0-0-0-000000000---00000000-0-0-0-000000000----------------------|

--------------------------------------------------------------------------|
--------------------------------------------------------------------------|
--------------------------------------------------------------------------|
--------------------------------------------------------------------------|
--------------------------------------------------------------------------|
-00000000-0-0-0-000000000---00000000-0-0-0--------------------------------|

GUITARS 1&2
--------------------------------------------------------------------------|
--------------------------------------------------------------------------|
--------------------------------------------------------------------------|
-------8888-------7777----------------------------------------------------|
--5555------4444----------------------------------------------------------|
------------------------00000000-0-0-0-000000000--------------------------|

--------------------------------------------------------------------------|
--------------------------------------------------------------------------|
--------------------------------------------------------------------------|
--------------------------------------------------------------------------|
--------------------------------------------------------------------------|
-00000000-0-0-0-000000000---00000000-0-0-0-000000000----------------------|

--------------------------------------------------------------------------|
--------------------------------------------------------------------------|
--------------------------------------------------------------------------|
--------------------------------------------------------------------------|
--------------------------------------------------------------------------|
-00000000-0-0-0-000000000---00000000-0-0-0-000000000----------------------|

--------------------------------------------------------------------------|
--------------------------------------------------------------------------|
--------------------------------------------------------------------------|
--------------------------------------------------------------------------|
--------------------------------------------------------------------------|
-00000000-0-0-0-000000000---00000000-0-0-0-000000000----------------------|

--------------------------------------------------------------------------|
--------------------------------------------------------------------------|
--------------------------------------------------------------------------|
--------------------------------------------------------------------------|
--------------------------------------------------------------------------|
-00000000-0-0-0-000000000---00000000-0-0-0-000000000----------------------|

GUITARS 1&2 MIXED
--------------------------------------------------------------------------|
--------------------------------------------------------------------------|
--------------------------------------------------------------------------|
--------------------------------------------------------------------------|
---5-7-8-7-5------5-7-8-10-8-7-8---5-7-8-7-5------------------------------|
-0-----------000-----------------0-----------00---88888888--55555555------|

GUITAR 1&2
--------------------------------------------------------------------------|
--------------------------------------------------------------------------|
--------------------------------------------------------------------------|
--------------------------------------------------------------------------|
---5-7-8-7-5------5-7-8-10-8-7-8---5-7-8-7-5------------------------------|
-------------000-----------------0-----------00---88888888--55555555------|

--------------------------------------------------------------------------|
--------------------------------------------------------------------------|
--------------------------------------------------------------------------|
--------------------------------------------------------------------------|
---5-7-8-7-5------5-7-8-10-8-7-8---5-7-8-7-5------------------------------|
-------------000-----------------0-----------00---88888888--55555555------|

------------------------------------------------------------------------|
------------------------------------------------------------------------|
------------------------------------------------------------------------|
----7--5----8-7-5-7----7--5-----88-5--77-3------------------------------|
------------------------------------------------------------------------|
-0--------0----------0-------0------------------------------------------|X2


------------------------------------------------------------------------|
------------------------------------------------------------------------|
------------------------------------------------------------------------|
------------------------------------------------------------------------|
-5-5-5--5-7-8-8-8-8--10-8-7-8-8-8-8--------888-----777------------------|
--0-0-0--------0-0-0---------0-0-0-0---000-----000----------------------|X2


----------------------------------------------------------------|15 IS
---------------------------------------------15-----------------|BENDED HALF
----------------------------------------------------------------|STEP
----------------------------------------------------------------|
-0--000-0--000-0--000-00----------------------------------------|
-0--000-0--000-0--000-00----------------------------------------|


-------------------------------------------------------------------------|
-------------------------------------------------------------------------|
-------------------------------------------------------------------------|
--------------------------------------------------8888------7777---------|
-000-00000000-000-00000000-000-00000000-------5555-----4444--------------|
-000-00000000-000-00000000-000-00000000----------------------------------|X4

-------------------------------------------------------------------------|
-------------------------------------------------------------------------|
-------------------------------------------------------------------------|
-------------------------------------------------------------------------|
-0-000-000-000-0-000-000-000-0-000-000-000-0-000-000-000------4----------|
-0-000-000-000-0-000-000-000-0-000-000-000-0-000-000-000------2----------|
                                                             HOLD






Like us on Facebook