Day In Black Tab - JOB FOR A COWBOY






i have tabbed out some of day in black  im working on the full song i will upated this  
soon. please tell me what u think. ;)

|-----------------------|------------------------------|
|-----------------------|------------------------------|
|-----------------------|------------------------------|
|-----------------------|--------------7---------------| X2
|--8-7-8-10-8-7-8-7-5-5-|-8-7-8-10-8-7---10-8-10-------|
|-----------------------|------------------------------|


|------------------------------------------------------|
|------------------------------------------------------|
|------------------------------------------------------|
|------------------------------------------------------|
|------------------------------------------------------|
|-00000-0-0-0-00000-0-00000-0-0-0-00000-0-00000-0-0-0--|

|-----------------------------|
|-----------------------------|
|-----------------------------|
|-------------------8-----7---|
|-----------------5------4----|
|00000-0 00000-0-0------------|


|---------------------|
|---------------------|
|---------------------|
|---------------------|X8
|---------------------|
|-00000-0-0-0-00000-0-|


|------------------------------------------------------------------------------|
|------------------------------------------------------------------------------|
|------------------------------------------------------------------------------|
|-----------------------------------------555----------------------------------|
|-555-777-888-777-555--0-0-0--555-777-888-----777-888-777-o-555-777-888-777-555|
|----------------------0-0-0------------------------------o--------------------|

|-----------------------|
|-----------------------|
|-----------------------|
|-0-0-8-8-5-5--0--------|
|-0-0-8-8-5-5--0--------|
|-0-0-8-8-5-5--0--------|

|------------------------------------------------------------------------------||
|------------------------------------------------------------------------------||
|------------------------------------------------------------------------------||
|-----------------------------------------555----------------------------------||
|-555-777-888-777-555--0-0-0--555-777-888-----777-888-777-o-555-777-888-777-555||
|----------------------0-0-0------------------------------o--------------------||
                                                                                | X 2
|-----------------------|                                                       |
|-----------------------|                                                       |
|-----------------------|                                                       |
|-0-0-8-8-5-5--0--------|                                                       |
|-0-0-8-8-5-5--0--------|                                                       |
|-0-0-8-8-5-5--0--------|                                                       |






Like us on Facebook