Entombment Of A Machine (ver2) Bass Tab - JOB FOR A COWBOY






This tab is copied from the other tab I just copy it because I'm to lazy but I changed some..

Drop C (cgcf) from low to high
^ are bends
|--------------------------------------|
|--------------------------------------|     x4
|--------------------3-4---------------|
|1-1-4-4-1-1-3-3-0-0-----0-0-----------|
(0:07)
|-------------------------|
|-------------------------|     x8
|---------------2---------|
|0-4-3-4-4-3-4------------|
(0:21)
|--------------------|
|--------------------|
|--------------------|
|4-1-3-0-4-1-3-0-----|
(0:23)
|------------------------------|
|------------------------------|
|------------------------------|
|444444-111111-333333-0--------|          That sick scream comes next.
(0:26)
|------------------------------------------------------|
|------------------------------------------------------|     x4
|------------------------------------------------------|
|44444444-11111111-33333333-00000000-------------------|
(0:40)
|-------------------|                                     --------------|
|-------------------|     x6 the 2nd and 6th time has this -------------|
|-------------------|                    ------12-----------------------|
|0---0-4-3-1--------|                     ------------------------------|
(0:59)
|--------------------------------------|
|--------------------------------------|     x4
|--------------------------------------|
|0-4-3-1----0-4-3-1--000-000-----------|
(1:13) tremolo picking (all notes)
|--------------------------------------------|
|--------------------------------------------|     x2
|------5-----------------4-------------------|
|5-7-8---8-7-5-7---4-6-7---7-6-4-6-----------|
(1:22)
Let each note ring
|-------|
|-------| x4 then the 5th to 8th time change 1 to 12 (dont include the 0 on eight times)
|-------|
|1-----0|
(1:47)
|---------|     |----------------------|
|---------|     |----------------------|
|-------4-| x2  |-------5------------4-| x4
|-4-6-7---|     |-5-7-8---8-7--4-6-7---|
(1:59)
|----------------------------|                                |---------------------------------|
|----------------------------|     x3 but on the 4th time dont include the 0s change it to |--|
|----------------------------|                                |---------------------------------|
|111111111111-0000-0000------|                                |---51410---------------------|
(2:11)
|----------------------------------------------------|
|----------------------------------------------------|     x4
|------5-------6---------------5-------6-------------|
|00000---00000---5-8-4-700000---00000---5-1-4-1----0|
(2:32)
|---------------------------------------|
|---------------------------------------|     x2
|5---4h5p4---1h4p1---1h4----------------|
|---------------------------0000--------|
(2:39)
|-----------------------------------------|
|-----------------------------------------|     x4
|-----------------------------------------|
|5---4h5p4---1h4p1---1h4-0000-------------|
(2:52)
Slide down from the 12th fret on your low E string
|-----------------------------------------------------------------------|
|-----------------------------------------------------------------------|    x2
|-----------------------------------------------------------------------|
|0-0-1-000-4----0-1-0-4--5/----0-0-1-000-4---0-4-3-1--------------------|
|-----------------------------------------------------------------------|
|-----------------------------------------------------------------------| x2
|-----------------------------------------------------------------------|
|0-4-3-1----------------------------------------------------------------|
(3:12)
|-------------------------|
|-------------------------|     x6 but on the 5th time and 6th time make all notes a little slow..
|---1-----1------4-----4--|
|3-2---3-2----6-5---6-5---|






Like us on Facebook